Четверг, 17.06.2021, 05:42
Популярные аккорды
   Аккорды песен Башкирия (3795)
   Аккорды песен 5nizza - Пятница (3060)
   Аккорды песен Я у девушка юный бил ночью в гостях... (2468)
   Аккорды песен Вот идет караван... (2378)
   Аккорды песен Лесоповал - Я куплю тебе дом (Белый лебедь) (2227)
   Аккорды песен Дворовые песни - Казахи (2069)
   Аккорды песен Тема из к/ф "Джентльмены удачи" (1837)
   Аккорды песен Дoждь cтyчит пo кpышaм, cлoвнo мнe нaзлo (1783)
   Аккорды песен Песня из к/ф "Золото Маккены" (1719)
   Аккорды песен Агата Кристи - Как на войне (1704)
Поиск
Статистика

Добавлено аккордов: 2102



Аккорды к песням нашим


0-9 - A - B - C - D - E - F - G - H - I - J - K - L - M - N - O - P - Q - R - S - T - U - V - W - X - Y - Z
А - Б - В - Г - Д - Е - Ж - З - И - К - Л - М - Н - О - П - Р - С - Т - У - Ф - Х - Ц - Ч - Ш - Щ - Э - Ю - Я

Аккорд песни 7Б - Мы Живем В Одном Районе
Просмотров: 372
Дата добавления: 07.06.2010
Категория: 0-9
Аккорды постоянно одни и те же.



am|--------
|---1----
|-----2--
|-----2--
|--------
|--------Am f|-1------------
|-1------------
|-1--2---------
|-1-----3------
|-1-----3------
|-1-----------F

Мы живем в одном районе

g
|------3---
|----------
|----------
|----------
|----2-----
|------3---G em|-----------
|-----------
|-----------
|-----2-----
|-----2-----
|-----------
Em

В школе учимся одной



Он живет не очень клево



И поэтому он такой



Проигрыш:am|--------
|---1----
|-----2--
|-----2--
|--------
|--------Am f|-1------------
|-1------------
|-1--2---------
|-1-----3------
|-1-----3------
|-1-----------F g
|------3---
|----------
|----------
|----------
|----2-----
|------3---G em|-----------
|-----------
|-----------
|-----2-----
|-----2-----
|-----------
Em



Учится он очень плохо



Мать его страдает



Деньги он с нее трясет



Ее он донимает



Проигрыш:am|--------
|---1----
|-----2--
|-----2--
|--------
|--------Am f|-1------------
|-1------------
|-1--2---------
|-1-----3------
|-1-----3------
|-1-----------F g
|------3---
|----------
|----------
|----------
|----2-----
|------3---G em|-----------
|-----------
|-----------
|-----2-----
|-----2-----
|-----------
Em



Много у него друзей



Никто не помогает



Все бухают все гуляют



Он с ними зависает



Проигрыш:am|--------
|---1----
|-----2--
|-----2--
|--------
|--------Am f|-1------------
|-1------------
|-1--2---------
|-1-----3------
|-1-----3------
|-1-----------F g
|------3---
|----------
|----------
|----------
|----2-----
|------3---G em|-----------
|-----------
|-----------
|-----2-----
|-----2-----
|-----------
Em



Очень часто шутит он



Все должны смеятся (Pause 3 Sek)



С виду он крутой парниша



Но внутри пустой он (Pause 3 Sek)



Ну теперь то вы узнали



Нашего Антона



И теперь он не достоен



Рванного гандона



Проигрыш: am|--------
|---1----
|-----2--
|-----2--
|--------
|--------Am f|-1------------
|-1------------
|-1--2---------
|-1-----3------
|-1-----3------
|-1-----------F g
|------3---
|----------
|----------
|----------
|----2-----
|------3---G em|-----------
|-----------
|-----------
|-----2-----
|-----2-----
|-----------
Em 3 раза
7Б - Мы Живем В Одном Районе аккорд песни