Понедельник, 28.09.2020, 09:02
Популярные аккорды
   Аккорды песен Башкирия (3665)
   Аккорды песен 5nizza - Пятница (2845)
   Аккорды песен Я у девушка юный бил ночью в гостях... (2236)
   Аккорды песен Вот идет караван... (2190)
   Аккорды песен Лесоповал - Я куплю тебе дом (Белый лебедь) (2091)
   Аккорды песен Дворовые песни - Казахи (1928)
   Аккорды песен Тема из к/ф "Джентльмены удачи" (1690)
   Аккорды песен Дoждь cтyчит пo кpышaм, cлoвнo мнe нaзлo (1649)
   Аккорды песен Агата Кристи - Как на войне (1558)
   Аккорды песен Кабриолет - Цепи (1527)
Поиск
Статистика

Добавлено аккордов: 2102



Аккорды к песням нашим


0-9 - A - B - C - D - E - F - G - H - I - J - K - L - M - N - O - P - Q - R - S - T - U - V - W - X - Y - Z
А - Б - В - Г - Д - Е - Ж - З - И - К - Л - М - Н - О - П - Р - С - Т - У - Ф - Х - Ц - Ч - Ш - Щ - Э - Ю - Я

Аккорд песни Адо - Не рви ее цветов
Просмотров: 207
Дата добавления: 10.06.2010
Категория: А
 c|----------
|---1------
|----------
|-----2----
|-------3--
|-------3--C G7 c|----------
|---1------
|----------
|-----2----
|-------3--
|-------3--C
Не рви ее цветов
f|-1------------
|-1------------
|-1--2---------
|-1-----3------
|-1-----3------
|-1-----------F c|----------
|---1------
|----------
|-----2----
|-------3--
|-------3--C
Там дом для мух, там дом для пчел и комаров.
f|-1------------
|-1------------
|-1--2---------
|-1-----3------
|-1-----3------
|-1-----------F c|----------
|---1------
|----------
|-----2----
|-------3--
|-------3--C
Там ни с того и ни с сего
f|-1------------
|-1------------
|-1--2---------
|-1-----3------
|-1-----3------
|-1-----------F c|----------
|---1------
|----------
|-----2----
|-------3--
|-------3--C
Свобода дома твоего,
G7
Письмо на камне из трех слов:
c|----------
|---1------
|----------
|-----2----
|-------3--
|-------3--C G7 c|----------
|---1------
|----------
|-----2----
|-------3--
|-------3--C
Жизнь ее цветов.

Кому из нас быть тут,
Кто верит в то, что трактора нас не сметут,
Кто мыслям даст прозрачность дня,
Кто ночь погонит от себя,
Тот не нарушит ее снов
В тени ее цветов.

f|-1------------
|-1------------
|-1--2---------
|-1-----3------
|-1-----3------
|-1-----------F c|----------
|---1------
|----------
|-----2----
|-------3--
|-------3--C
И аромат ее для тех,
f|-1------------
|-1------------
|-1--2---------
|-1-----3------
|-1-----3------
|-1-----------F c|----------
|---1------
|----------
|-----2----
|-------3--
|-------3--C
Кто знает кровь, но помнит смех.
G7 c|----------
|---1------
|----------
|-----2----
|-------3--
|-------3--C
И говорит на языке,
G7 c|----------
|---1------
|----------
|-----2----
|-------3--
|-------3--C
Понятном ей, понятном мне.

И он пришел, он видел все.
В одной руке держал он дождь, в другой - ружье.
Ему сказали: Брось огонь,
Но в звуках тех топтался конь,
Он первым спел без слов:
Смерть ее цветов.

Казалось мне день ото дня,
Что жизнь умчится без меня.
Но ночь вошла в уставший мир,
Мир в ней уснул, я вместе с ним.
Адо - Не рви ее цветов аккорд песни