Воскресенье, 17.01.2021, 12:10
Популярные аккорды
   Аккорды песен Башкирия (3715)
   Аккорды песен 5nizza - Пятница (2917)
   Аккорды песен Я у девушка юный бил ночью в гостях... (2323)
   Аккорды песен Вот идет караван... (2245)
   Аккорды песен Лесоповал - Я куплю тебе дом (Белый лебедь) (2140)
   Аккорды песен Дворовые песни - Казахи (1988)
   Аккорды песен Тема из к/ф "Джентльмены удачи" (1747)
   Аккорды песен Дoждь cтyчит пo кpышaм, cлoвнo мнe нaзлo (1693)
   Аккорды песен Агата Кристи - Как на войне (1608)
   Аккорды песен Песня из к/ф "Золото Маккены" (1589)
Поиск
Статистика

Добавлено аккордов: 2102



Аккорды к песням нашим


0-9 - A - B - C - D - E - F - G - H - I - J - K - L - M - N - O - P - Q - R - S - T - U - V - W - X - Y - Z
А - Б - В - Г - Д - Е - Ж - З - И - К - Л - М - Н - О - П - Р - С - Т - У - Ф - Х - Ц - Ч - Ш - Щ - Э - Ю - Я

Аккорд песни Адо - Самый маленький гном...
Просмотров: 235
Дата добавления: 10.06.2010
Категория: А
 c|----------
|---1------
|----------
|-----2----
|-------3--
|-------3--C E7 f|-1------------
|-1------------
|-1--2---------
|-1-----3------
|-1-----3------
|-1-----------F g
|------3---
|----------
|----------
|----------
|----2-----
|------3---G c|----------
|---1------
|----------
|-----2----
|-------3--
|-------3--C
Самый маленький гном встретил подружку.
c|----------
|---1------
|----------
|-----2----
|-------3--
|-------3--C E7 f|-1------------
|-1------------
|-1--2---------
|-1-----3------
|-1-----3------
|-1-----------F g
|------3---
|----------
|----------
|----------
|----2-----
|------3---G c|----------
|---1------
|----------
|-----2----
|-------3--
|-------3--C
И они, дурачки, на беду полюбили друг-дружку.
f|-1------------
|-1------------
|-1--2---------
|-1-----3------
|-1-----3------
|-1-----------F g
|------3---
|----------
|----------
|----------
|----2-----
|------3---G c|----------
|---1------
|----------
|-----2----
|-------3--
|-------3--C am|--------
|---1----
|-----2--
|-----2--
|--------
|--------Am f|-1------------
|-1------------
|-1--2---------
|-1-----3------
|-1-----3------
|-1-----------F g
|------3---
|----------
|----------
|----------
|----2-----
|------3---G c|----------
|---1------
|----------
|-----2----
|-------3--
|-------3--C
Гном узнал четыре ноты, из трех слов слагал ей стих.
c|----------
|---1------
|----------
|-----2----
|-------3--
|-------3--C E7 am|--------
|---1----
|-----2--
|-----2--
|--------
|--------Am f|-1------------
|-1------------
|-1--2---------
|-1-----3------
|-1-----3------
|-1-----------F f|-1------------
|-1------------
|-1--2---------
|-1-----3------
|-1-----3------
|-1-----------F g
|------3---
|----------
|----------
|----------
|----2-----
|------3---G c|----------
|---1------
|----------
|-----2----
|-------3--
|-------3--C
Подружка обожала эти песни, ему она пела их.

Им было свободно, как флюгеру на ветру.
Была бы горбушка утром, глоток воды ввечеру.
Она звала его синий зайчик, а он стеснялся в ответ,
И, уходя добывать землянику, тихо шептал ей привет.

Они сладко спали в тени большой травы,
Любовь начинали с первым криком совы.
По слухам, у них появились дети, и не лишнее будет сказать:
Ходите по лесу осторожней, ребята,
Под ногами - кормящая мать.
Адо - Самый маленький гном... аккорд песни