Воскресенье, 27.09.2020, 23:22
Популярные аккорды
   Аккорды песен Башкирия (3665)
   Аккорды песен 5nizza - Пятница (2845)
   Аккорды песен Я у девушка юный бил ночью в гостях... (2235)
   Аккорды песен Вот идет караван... (2190)
   Аккорды песен Лесоповал - Я куплю тебе дом (Белый лебедь) (2091)
   Аккорды песен Дворовые песни - Казахи (1928)
   Аккорды песен Тема из к/ф "Джентльмены удачи" (1690)
   Аккорды песен Дoждь cтyчит пo кpышaм, cлoвнo мнe нaзлo (1649)
   Аккорды песен Агата Кристи - Как на войне (1558)
   Аккорды песен Кабриолет - Цепи (1527)
Поиск
Статистика

Добавлено аккордов: 2102



Аккорды к песням нашим


0-9 - A - B - C - D - E - F - G - H - I - J - K - L - M - N - O - P - Q - R - S - T - U - V - W - X - Y - Z
А - Б - В - Г - Д - Е - Ж - З - И - К - Л - М - Н - О - П - Р - С - Т - У - Ф - Х - Ц - Ч - Ш - Щ - Э - Ю - Я

Аккорд песни Агата Кристи - Опиум для никого
Просмотров: 286
Дата добавления: 07.06.2010
Категория: А
 Cm
Я крашу губы гуталином,
B G
Я обожаю чярный цвет
B
И мой герой, он соткан весь
Fm G
Из тонких запахов конфет.
Cm
Напудрив ноздри кокаином,
B G
Я выхожу на променад,
B
И звязды светят мне красиво,
Fm G
И симпатичен ад.

Cm
Давай вечером с тобой встретимся
B G
Будем опиум курить-рить-рить.
Cm
Давай вечером с тобой встретимся
B G
По-китайски говорить.
Cm
Не прячь музыку - она опиум
B G
Для никого, только для нас.
Cm
Давай вечером умрем весело,
B G
Поиграем в декаданс.

Убей меня, убей себя,
Ты не изменишь ничего:
У этой сказки нет конца
Ты не изменишь ничего.
Накрась ресницы губной помадой,
А губы лаком для волос
Ты будешь - мяртвая принцесса,
А я - твой вярный пяс.

Опиум [tabs]

Модный такой заход. Промеж куплету и
Cm припеву.
|--------8------------------------------------------|-----3---3---3--------
|----7-8--------------------------------------------|-----3---3---3--------
|----------------5-----5---------5------5----.....--|----------------------
|---------------------------------------------------|----------------------
|---------------------------------------------------|----------------------
|---------------------------------------------------|----------------------

Время от времени появляется такое вот нечто:

|----13-12-11---|
|---------------|
|---------------|
|---------------|
|---------------|
|---------------|

И еще вот:

|---------------|
|----6-5-4------|
|---------------|
|---------------|
|---------------|
|---------------|

А теперь...

Соло. Соблюдены длительности
G Cm
4 и 1 и 2 и 3 и 4 1 и 2 и 3 и 4 и 1 и 2 и 3 и 4 и
|------|---------------|-----------------|------------------|--------------
|--6-5-|-4-------------|(4)--П-----------|-78----78------78-|--------------
|------|---------------|-----а-----------|------------------|--------------
|------|---------------|-----у-----------|------------------|--------------
|------|---------------|-----з-----------|------------------|--------------
|------|---------------|-----а-----------|------------------|--------------


Gm/Bb Bb
1 и 2 и 3 и 4 и 1 и 2 и 3 и 4 и 1 и 2 и 3 и 4 и 1 и 2 и 3 и 4 и
|------------------|-10--------------|-----------------|-------1011--------
|-(8)----------6-8-|------78------78-|(8)--------------|-89-------------89-
|------------------|-----------------|-----------------|-------------------
|------------------|-----------------|-----------------|-------------------
|------------------|-----------------|-----------------|-------------------
|------------------|-----------------|-----------------|-------------------


Fm7 G7 Cm
1 и 2 и 3 и 4 и 1 u 2 u 3 u 4 u 1 u 2 u 3 u 4 u 1 u 2 u 3 u 4 u
|(4)----------3-4-|1011--------------|-----------------|------------------|
|-----------------|---------89-------|78---------------|-8-/gliss/---17---|
|-----------------|------------------|-----------------|-8-/gliss/-----21-|
|-----------------|------------------|-----------------|------------------|
|-----------------|------------------|-----------------|------------------|
|-----------------|------------------|-----------------|------------------|


Gm/Bb Bb
1 u 2 u 3 u 4 u 1 u 2 u 3 u 4 u 1 u 2 u 3 u 4 u 1 u 2 u 3 u 4 u
|-------------8---|810------10----10-|(10)---------6---|-8-------8----68--|
|(17)-------------|------------------|-----------------|------------------|
|-----------------|------------------|-----------------|------------------|
|-----------------|------------------|-----------------|------------------|
|-----------------|------------------|-----------------|------------------|
------------------|------------------|-----------------|------------------|


Fm G
1 u 2 u 3 u 4 u 1 u 2 u 3 u 4 u 1 u 2 u 3 u 4 u 1 u 2 u 3 u 4 u
|(8)----------6-8-|-15------13------|-----------------|-------------------|
|-----------------|-----------------|-----------------|-------------------|
|-----------------|-----------------|-----------------|-------------------|
|-----------------|-----------------|-12--------------|-5/glissando/17----|
|-----------------|-----------------|-------------6-8-|-------------------|
|-----------------|-----------------|-----------------|-------------------|


В последнем припеве такие соляки:
Gm/Bb G Cm
c тобой встретимся 1 u 2 u 3 u 4 u 1 и 2 и 3 и 4 и 1
|-----------------|-----------------|-----------------|-------------------|
|-----------------|-3---------------|-------------6-5-|-4-----------------|
|-----------------|---------------0-|(0)--------------|-------------------|
|-----------------|-----------------|-----------------|-------------------|
|-----------------|-----------------|-----------------|-------------------|
|-----------------|-----------------|-----------------|-------------------|

Gm/Bb G Cm
с тобой встретимся 1 u 2 u 3 u 4 u 1 u 2 u 3 u 4 u 1
|-----------------|-3---------------|-----------------|------|
|-----------------|---------------3-|(3)----------6-5-|-4----|
|-----------------|-----------------|-----------------|------|
|-----------------|-----------------|-----------------|------|
|-----------------|-----------------|-----------------|------|
|-----------------|-----------------|-----------------|------|

Gm/Bb G Cm
умрем весело 1 u 2 u 3 u 4 u 1 и 2 и 3 и 4 и 1
|-----------------|-3---------------|-----------------|------|
|-----------------|---------------3-|(3)----------6-5-|-4----|
|-----------------|-----------------|-----------------|------|
|-----------------|-----------------|-----------------|------|
|-----------------|-----------------|-----------------|------|
|-----------------|-----------------|-----------------|------|
Агата Кристи - Опиум для никого аккорд песни