Понедельник, 28.09.2020, 17:17
Популярные аккорды
   Аккорды песен Башкирия (3666)
   Аккорды песен 5nizza - Пятница (2845)
   Аккорды песен Я у девушка юный бил ночью в гостях... (2236)
   Аккорды песен Вот идет караван... (2191)
   Аккорды песен Лесоповал - Я куплю тебе дом (Белый лебедь) (2091)
   Аккорды песен Дворовые песни - Казахи (1929)
   Аккорды песен Тема из к/ф "Джентльмены удачи" (1690)
   Аккорды песен Дoждь cтyчит пo кpышaм, cлoвнo мнe нaзлo (1649)
   Аккорды песен Агата Кристи - Как на войне (1558)
   Аккорды песен Кабриолет - Цепи (1527)
Поиск
Статистика

Добавлено аккордов: 2102



Аккорды к песням нашим


0-9 - A - B - C - D - E - F - G - H - I - J - K - L - M - N - O - P - Q - R - S - T - U - V - W - X - Y - Z
А - Б - В - Г - Д - Е - Ж - З - И - К - Л - М - Н - О - П - Р - С - Т - У - Ф - Х - Ц - Ч - Ш - Щ - Э - Ю - Я

Аккорд песни Агата Кристи - Серое небо
Просмотров: 213
Дата добавления: 07.06.2010
Категория: А
E||--------------------------|--------------------|-------------------------|
B||--------------------------|--------------------|-------------------------|
G||--------------------------|--------------------|-------------------------|
D||--3--3--2--2--0--0--------|-----0--------------|--2--2--0--0-------------|
A||--------------------3--3--|--2-----------------|--------------4----2--2--|
E||--------------------------|--------------------|-------------------------|
У-ле-те-ла сказка вместе с детством, спрятавшись за чо- порной


--------------------|-------------------------|---------------------|
--------------------|-------------------------|---------------------|
--------------------|-------------------------|---------------------|
-----3--------------|--3--3--2--2--0----------|-----0------------2--|
--0-----------------|-------------------3--3--|--2------------------|
--------------------|-------------------------|---------------------|
шир-мой. Фе-я пос-пе-ши- ла о- деться, я


--------------------------|--------------------|-------------------------|
--------------------------|--------------------|-------------------------|
--------------------------|--------------------|-------------------------|
--2--2--0--0--------------|-----3--------------|--3--3--2--2--0----------|
--------------4--4--2--2--|--0-----------------|-------------------4-----|
--------------------------|--------------------|----------------------3--|
стря-хи-ва-ю пепел в это не- бо. Нет,теперь не то вре-мя,


-----------------------|------------------------|------------------------|
-----------------------|------------------------|------------------------|
-----------------------|------------------------|------------------------|
------3--3--2--2--0----|-------------------1----|-------0----------0--0--|
-----------------------|--3--3--3--3--3---------|--4---------4--4--------|
-----------------------|------------------------|------------------------|
нет теперь не то не-бо,ког-да мож- но бы- ло прос-то у- лы


------------------------|-----------------------|--------------------------|
------------------------|-----------------------|--1-----3-----1-----1-----|
------------------------|------------------0----|--------2--------0-----0--|
-------0----2--2--0--0--|--4----2--4--4---------|-----3-----3-----0--0--0--|
--4---------------------|-----------------------|--3--5-----5--3--7-----7--|
------------------------|-----------------------|--------------------------|
-бать-ся серым о- но бу- дет потом.


--------------0-----------|--------------------0-----|
--1-----3-----------3-----|--2-----0-----------------|
-----0--5--0-----0-----0--|-----0-----0--2--0-----0--|
-----0-----0--------------|--------------------------|
--3--7-----7--------------|--------------------------|
--------------------------|--------------------------|



--------------------------|--------------------------|--0--0-------------------|
--3-----2-----0-----------|--3--3--3--3--3--3--3--3--|--------3--3--2----0-----|
-----0-----0-----0--2--0--|--------------------------|----------------------2--|
--------------------------|--------------------------|-------------------------|
--------------------------|--------------------------|-------------------------|
--------------------------|--------------------------|-------------------------|
Если сделать все что надо и не вспоми-на- а- ть.


--------------------------|--0--0-------------------|--5--5--5--5--5--5--5--5--|
--3--3--3--3--3--3--3--3--|--------3--3--2----0-----|--------------------------|
--------------------------|----------------------2--|--------------------------|
--------------------------|-------------------------|--------------------------|
--------------------------|-------------------------|--------------------------|
--------------------------|-------------------------|--------------------------|
Если спрятаться в подушку и не вспоми-на- а- ть. Если видеть небо серым


--5--5--5--5--5--3-------|----------------------|------------------------|
-------------------------|-----3---------3------|--------------0---------|
----------------------2--|--0-------------------|--------0--2-------2----|
-------------------------|------------3---------|--2--2------------------|
-------------------------|----------------------|------------------------|
-------------------------|----------------------|------------------------|
и не вспоми-на-ать,что не-бо, не-бо бы-ло го-лу-бы- ым.


----------------------|--------------|--------------------------|
-----3---------3------|--------3--2--|--3--3--3--3--3--3--3--3--|
--0-------------------|-----0--------|--------------------------|
------------3---------|--2-----------|--------------------------|
----------------------|--------------|--------------------------|
----------------------|--------------|--------------------------|
Не-бо, не-бо бы ло го-лу.. Только эт-о не по-мо-жет


--0--0--------------------|--1-----0-----------------|
--------3--3--2--2--0-----|--------------3-----0--3--|
-----------------------2--|-----2-----2-----0--------|
--------------------------|--------------------------|
--------------------------|--------------------------|
--------------------------|--------------------------|
тем,кто любит рисова- ать



--0-----------------------|----------------------|------------------------|
--------3-----1-----1-----|-----3---------3------|--------------0---------|
-----0-----0-----0-----2--|--0-------------------|--------0--2-------2----|
--------------------------|------------3---------|--2--2------------------|
--------------------------|----------------------|------------------------|
--------------------------|----------------------|------------------------|
лю-бит, лю-бит, лю-бит рисо- ва- ать,


----------------------|--------------|-----------------------|
-----3---------3------|--------3--2--|--3--------------------|
--0-------------------|--------------|-----2-----------------|
------------3---------|--2-----------|-----------------------|
----------------------|-----0--------|-----------------------|
----------------------|--------------|--------0----0----0----|
лю-бит, лю-бит, лю-бит ри-со- вать.



--1-------------------|--1--1--0--0-------------|------1--1--0--0-------|
----------------------|--------------3----2-----|------------------3----|
-------2--------------|----------------------0--|-----------------------|
----------------------|-------------------------|-----------------------|
----------------------|-------------------------|-----------------------|
--0----0----0----0----|-------------------------|-----------------------|
Нет,теперь не то вре-мя, нет,теперь не то


------------------------|------------------------|-------------0--0--------|
--2-----2--2--2----3----|--2----3----2--2--3--3--|--2----3--3--------3--3--|
-----2------------------|------------------------|-------------------------|
------------------------|------------------------|-------------------------|
------------------------|------------------------|-------------------------|
------------------------|------------------------|-------------------------|
не-бо, когда мож- но бы- ло просто у-лы- бать-ся.А на-до и ко-


-------------------5--5--|------------------------|--3--3--1--1--0--0--------|
--2----0--0-----2--------|--3----1----0--0--------|--------------------3--3--|
-------------2-----------|------------------0-----|--------------------------|
-------------------------|---------------------2--|--------------------------|
-------------------------|------------------------|--------------------------|
-------------------------|------------------------|--------------------------|
го- то любить и на-до жить пос- ле то-го и снова, снова,снова у- би-


--------------------|----------------------|------------------------|
--2--2--2--2--2--2--|--2----3----2----3----|--2--2--3--3--2----3----|
--------------------|----------------------|------------------------|
--------------------|----------------------|------------------------|
--------------------|----------------------|------------------------|
--------------------|----------------------|------------------------|
вать,ведь это раньше мож- но бы- ло просто у-лы-бать- ся.


--0--0--------------------|----------------------|------------------------|
--------3--3--2--2--0--2--|--2----3----2----3----|--2--2--3--3--2----3----|
--------------------------|----------------------|------------------------|
--------------------------|----------------------|------------------------|
--------------------------|----------------------|------------------------|
--------------------------|----------------------|------------------------|
Се-рым он-о будет,раньше мож- но бы- ло просто у-лы-бать- ся.


--0--0-----------3--3--5--|--0----1----0----1----|--0--0--1--1--0----1----|
--------3--3--2-----------|----------------------|------------------------|
--------------------------|----------------------|------------------------|
--------------------------|----------------------|------------------------|
--------------------------|----------------------|------------------------|
--------------------------|----------------------|------------------------|
Сер-ым он-о бу-дет,раньше мож- но бы- ло просто у-лы-бать- ся.


-------------------------|----------------------------------|
--2--2--0--0-------------|----------------------------------|
--------------0----------|--------0-2-0-----------0-2-0-----|
-------------------2--2--|----0-2-------2-0---0-2-------2-0-|
-------------------------|--0---------------0---------------|
-------------------------|----------------------------------|
Сер-ым он-о бу- дет по- том.


---------------------3--2--3--|--2--5----0----------|----------||
---------0---0-3-0-3----------|---------------------|----------||
-------0---0------------------|---------------------|----------||
-----2------------------------|---------------------|----------||
------------------------------|---------------------|----------||
---8--------------------------|---------------------|----------||
Агата Кристи - Серое небо аккорд песни