Среда, 30.09.2020, 20:55
Популярные аккорды
   Аккорды песен Башкирия (3666)
   Аккорды песен 5nizza - Пятница (2848)
   Аккорды песен Я у девушка юный бил ночью в гостях... (2237)
   Аккорды песен Вот идет караван... (2192)
   Аккорды песен Лесоповал - Я куплю тебе дом (Белый лебедь) (2092)
   Аккорды песен Дворовые песни - Казахи (1930)
   Аккорды песен Тема из к/ф "Джентльмены удачи" (1691)
   Аккорды песен Дoждь cтyчит пo кpышaм, cлoвнo мнe нaзлo (1649)
   Аккорды песен Агата Кристи - Как на войне (1559)
   Аккорды песен Кабриолет - Цепи (1529)
Поиск
Статистика

Добавлено аккордов: 2102



Аккорды к песням нашим


0-9 - A - B - C - D - E - F - G - H - I - J - K - L - M - N - O - P - Q - R - S - T - U - V - W - X - Y - Z
А - Б - В - Г - Д - Е - Ж - З - И - К - Л - М - Н - О - П - Р - С - Т - У - Ф - Х - Ц - Ч - Ш - Щ - Э - Ю - Я

Аккорд песни Агата Кристи - Шпала
Просмотров: 206
Дата добавления: 07.06.2010
Категория: А
[inro]

E-----0-0-3-3-0-0-0---|-2-2-----1-1-0-0-0---|---------0-0--------
B-1-1---------------1-|-----3-3-----------3-|-----1-1-----1------
G---------------------|---------------------|-2-2----------------
D---------------------|---------------------|--------------------
A---------------------|---------------------|--------------------
E---------------------|---------------------|--------------------

--------|----------------------||-----------------|
--1-1---|-4-4-0-0-3-3-1-1-1-0--||-4-4-0-0-3-3-1---|
------2-|---------------------.||-----------------|
--------|---------------------.||-----------------|
--------|----------------------||-----------------|
--------|----------------------||-----------------|

----0-----0--------0--0---3-|-1-0---------0--0--0-|-1---0--1----1--0-|-
4-------------1-------------|------1--------------|------------------|4
.----------------2----------|---------2-----------|------------------|-
.---------------------------|---------------------|------------------|-
----------------------------|---------------------|------------------|-
----------------------------|---------------------|------------------|-
Ты ви - дишь я бо-ле-ю Объ- я-ти-я Мор-фе-я Ме-ня вле-кут В ни-ку-да
------|-------------------|-0---------------0---|-----7-------7---5-|4
----4-|-3---3-0----3-3--3-|---3--0-------3----3-|-3------3-3--------|-
------|----------1--------|----------1----------|-------------------|-
------|-------------------|---------------------|-------------------|-
------|-------------------|---------------------|-------------------|-
------|-------------------|---------------------|-------------------|-
Смо-три: я у-ле-та-ю На об-ла-ке трам-ва-я ис-крят-ся е-го про-во-да
-----0-0-1-1-0---0--||--- 7--5--4--5--7-|-5--------0-0---------|-
---3----------------||-3----------------|------1-1-----1-1-1---|-
-------------------.||------------------|----2---------------2-|-
-------------------.||------------------|----------------------|-
--------------------||------------------|----------------------|-
--------------------||------------------|----------------------|-
За-// ва-ва я сек-та ко-лес!
-----------0--0--0----1--1----1--0-|-
--3-3-0-0--------------------------|-
-----------------------------------|-
-----------------------------------|-
-----------------------------------|-
-----------------------------------|-
Шпа-ла-ла - ла-ла - ла-ла...

Ты видишь я болею
Объятия Морфея
Меня влекут в никуда
Смотри я улетаю
На облаке трамвая
Искрятся его провода
Зачем они искрятся
Не трудно догодаться
Смешон Смешон твой вопрос
Смотри как воздвигает
Алтарь для новой шпалы
Кровавая секта колёс
Шпала-ла-ла-ла-ла

Сначала мне отрубят
У-уши-ноги-руки
Возьмут щепцами глаза
Потом зальют гудроном
Пройдёт по мне вагоноы
Во имя Отца-Колеса
Ты видишь я нормальный
Трамвайно-рельсо-шпальный
Не убегу никуда
Смотри я отдыхаю
Под облаком трамвая
Искритятся его провода
Шпала-ла-ла-ла-ла
Агата Кристи - Шпала аккорд песни