Воскресенье, 27.09.2020, 23:07
Популярные аккорды
   Аккорды песен Башкирия (3665)
   Аккорды песен 5nizza - Пятница (2845)
   Аккорды песен Я у девушка юный бил ночью в гостях... (2235)
   Аккорды песен Вот идет караван... (2190)
   Аккорды песен Лесоповал - Я куплю тебе дом (Белый лебедь) (2091)
   Аккорды песен Дворовые песни - Казахи (1928)
   Аккорды песен Тема из к/ф "Джентльмены удачи" (1690)
   Аккорды песен Дoждь cтyчит пo кpышaм, cлoвнo мнe нaзлo (1649)
   Аккорды песен Агата Кристи - Как на войне (1558)
   Аккорды песен Кабриолет - Цепи (1527)
Поиск
Статистика

Добавлено аккордов: 2102



Аккорды к песням нашим


0-9 - A - B - C - D - E - F - G - H - I - J - K - L - M - N - O - P - Q - R - S - T - U - V - W - X - Y - Z
А - Б - В - Г - Д - Е - Ж - З - И - К - Л - М - Н - О - П - Р - С - Т - У - Ф - Х - Ц - Ч - Ш - Щ - Э - Ю - Я

Аккорд песни Агата Кристи - Споёмте О Сексе
Просмотров: 203
Дата добавления: 07.06.2010
Категория: А
{intro:} Esus4 em|-----------
|-----------
|-----------
|-----2-----
|-----2-----
|-----------
Em Esus4 em|-----------
|-----------
|-----------
|-----2-----
|-----2-----
|-----------
Em
hm|--2-------
|--2-3-----
|--2---4---
|--2---4---
|--2-------
|--2-------Hmadd13- hm|--2-------
|--2-3-----
|--2---4---
|--2---4---
|--2-------
|--2-------Hm hm|--2-------
|--2-3-----
|--2---4---
|--2---4---
|--2-------
|--2-------Hmadd13- hm|--2-------
|--2-3-----
|--2---4---
|--2---4---
|--2-------
|--2-------Hm
am|--------
|---1----
|-----2--
|-----2--
|--------
|--------Am7 am|--------
|---1----
|-----2--
|-----2--
|--------
|--------Am6 am|--------
|---1----
|-----2--
|-----2--
|--------
|--------Am7 am|--------
|---1----
|-----2--
|-----2--
|--------
|--------Am6
Esus4 em|-----------
|-----------
|-----------
|-----2-----
|-----2-----
|-----------
Em Esus4 em|-----------
|-----------
|-----------
|-----2-----
|-----2-----
|-----------
Em
Esus4 em|-----------
|-----------
|-----------
|-----2-----
|-----2-----
|-----------
Em Esus4 em|-----------
|-----------
|-----------
|-----2-----
|-----2-----
|-----------
Em
hm|--2-------
|--2-3-----
|--2---4---
|--2---4---
|--2-------
|--2-------Hmadd13- hm|--2-------
|--2-3-----
|--2---4---
|--2---4---
|--2-------
|--2-------Hm hm|--2-------
|--2-3-----
|--2---4---
|--2---4---
|--2-------
|--2-------Hmadd13- hm|--2-------
|--2-3-----
|--2---4---
|--2---4---
|--2-------
|--2-------Hm
am|--------
|---1----
|-----2--
|-----2--
|--------
|--------Am7 am|--------
|---1----
|-----2--
|-----2--
|--------
|--------Am6 am|--------
|---1----
|-----2--
|-----2--
|--------
|--------Am7 am|--------
|---1----
|-----2--
|-----2--
|--------
|--------Am6
D7sus4 D7 D7sus4 D7

em|-----------
|-----------
|-----------
|-----2-----
|-----2-----
|-----------
Em
За окном зима зима
h7|---2-----
|---------
|---2-----
|-1-------
|---------
|---2-----H7
а небе сказочном луна
am|--------
|---1----
|-----2--
|-----2--
|--------
|--------Am
Горит свеча вокруг темно
D7
А мы встречаем рождество

C
За окном снежинки тают
d|---2------
|-----3----
|---2------
|----------
|----------
|----------D em|-----------
|-----------
|-----------
|-----2-----
|-----2-----
|-----------
Em
За окном кого-то...

{аккорды вступления}
Убивают убивают убивают

Иисус Христос помилуй нас
Иисус Христос спаситель наш
Помилуй нас помилуй нас
И не оставь нас в этот час

За окном собаки лают
За окном кого-то...

f|-1------------
|-1------------
|-1--2---------
|-1-----3------
|-1-----3------
|-1-----------F
За окном зима зима
am|--------
|---1----
|-----2--
|-----2--
|--------
|--------Am
а небе сказочном луна
Горит свеча вокруг темно
А мы встречаем рождество

А за окном снежинки тают
За окном кого-то...

Убивают убивают убивают

{outro:} em|-----------
|-----------
|-----------
|-----2-----
|-----2-----
|-----------
Em

--
Esus4 - 0xx455
em|-----------
|-----------
|-----------
|-----2-----
|-----2-----
|-----------
Em - 0xx453
hm|--2-------
|--2-3-----
|--2---4---
|--2---4---
|--2-------
|--2-------Hmadd13- - xxx433
hm|--2-------
|--2-3-----
|--2---4---
|--2---4---
|--2-------
|--2-------Hm - xxx432
D7sus4 - xx0213
Агата Кристи - Споёмте О Сексе аккорд песни