Суббота, 24.10.2020, 05:44
Популярные аккорды
   Аккорды песен Башкирия (3680)
   Аккорды песен 5nizza - Пятница (2869)
   Аккорды песен Я у девушка юный бил ночью в гостях... (2257)
   Аккорды песен Вот идет караван... (2206)
   Аккорды песен Лесоповал - Я куплю тебе дом (Белый лебедь) (2107)
   Аккорды песен Дворовые песни - Казахи (1945)
   Аккорды песен Тема из к/ф "Джентльмены удачи" (1706)
   Аккорды песен Дoждь cтyчит пo кpышaм, cлoвнo мнe нaзлo (1660)
   Аккорды песен Агата Кристи - Как на войне (1572)
   Аккорды песен Кабриолет - Цепи (1543)
Поиск
Статистика

Добавлено аккордов: 2102



Аккорды к песням нашим


0-9 - A - B - C - D - E - F - G - H - I - J - K - L - M - N - O - P - Q - R - S - T - U - V - W - X - Y - Z
А - Б - В - Г - Д - Е - Ж - З - И - К - Л - М - Н - О - П - Р - С - Т - У - Ф - Х - Ц - Ч - Ш - Щ - Э - Ю - Я

Аккорд песни Агата Кристи - Второй Фронт
Просмотров: 349
Дата добавления: 06.06.2010
Категория: А
{intro:} am|--------
|---1----
|-----2--
|-----2--
|--------
|--------Am am|--------
|---1----
|-----2--
|-----2--
|--------
|--------Amadd13- em|-----------
|-----------
|-----------
|-----2-----
|-----2-----
|-----------
Emadd9 em|-----------
|-----------
|-----------
|-----2-----
|-----2-----
|-----------
Emadd9+ em|-----------
|-----------
|-----------
|-----2-----
|-----2-----
|-----------
Emadd9 em|-----------
|-----------
|-----------
|-----2-----
|-----2-----
|-----------
Emadd9+ F#madd9 F#madd9+

am|--------
|---1----
|-----2--
|-----2--
|--------
|--------Am e|------------
|------------
|---1--------
|------2-----
|------2-----
|------------E
Утонули 3 фрегата
G d|---2------
|-----3----
|---2------
|----------
|----------
|----------D
И лежат на дне пираты
А на море море воля
Мертвецы хотят обратно
f|-1------------
|-1------------
|-1--2---------
|-1-----3------
|-1-----3------
|-1-----------F e|------------
|------------
|---1--------
|------2-----
|------2-----
|------------E
адо только выпить море

am|--------
|---1----
|-----2--
|-----2--
|--------
|--------Am am|--------
|---1----
|-----2--
|-----2--
|--------
|--------Amadd13- em|-----------
|-----------
|-----------
|-----2-----
|-----2-----
|-----------
Emadd9 em|-----------
|-----------
|-----------
|-----2-----
|-----2-----
|-----------
Emadd9+ em|-----------
|-----------
|-----------
|-----2-----
|-----2-----
|-----------
Emadd9 em|-----------
|-----------
|-----------
|-----2-----
|-----2-----
|-----------
Emadd9+ F#madd9 F#madd9+
{припев:} Выпьешь море видишь сразу
am|--------
|---1----
|-----2--
|-----2--
|--------
|--------Am asus2|---------
|---------
|--2------
|--2------
|---------
|---------asus|---------
|----3----
|--2------
|--2------
|---------
|---------
Asus2 em|-----------
|-----------
|-----------
|-----2-----
|-----2-----
|-----------
Em am|--------
|---1----
|-----2--
|-----2--
|--------
|--------Am
ебо в звездах и алмазах
Лай-лай-лай-ла лай-лай-лай-ла
ебо в звездах и алмазах

Море это море крови
Море это море боли
Море это соль и слезы
А на небе небе звезды

адо только выпить море

Выпьешь море Выпьешь сразу
ебо в звездах и алмазах

адо только выпить море
адо только выпить море

Выпьешь море Выпьешь сразу
ебо в звездах и алмазах
Лай-лай-лай-ла
Лай-лай-лай-ла

{outro:} am|--------
|---1----
|-----2--
|-----2--
|--------
|--------Am

--
am|--------
|---1----
|-----2--
|-----2--
|--------
|--------Amadd13- - 002211
em|-----------
|-----------
|-----------
|-----2-----
|-----2-----
|-----------
Emadd9 - 022002
em|-----------
|-----------
|-----------
|-----2-----
|-----2-----
|-----------
Emadd9+ - 022003
F#madd9 - 244224
F#madd9+ - 244225
Агата Кристи - Второй Фронт аккорд песни