Пятница, 25.09.2020, 18:33
Популярные аккорды
   Аккорды песен Башкирия (3664)
   Аккорды песен 5nizza - Пятница (2845)
   Аккорды песен Я у девушка юный бил ночью в гостях... (2234)
   Аккорды песен Вот идет караван... (2188)
   Аккорды песен Лесоповал - Я куплю тебе дом (Белый лебедь) (2088)
   Аккорды песен Дворовые песни - Казахи (1927)
   Аккорды песен Тема из к/ф "Джентльмены удачи" (1687)
   Аккорды песен Дoждь cтyчит пo кpышaм, cлoвнo мнe нaзлo (1648)
   Аккорды песен Агата Кристи - Как на войне (1558)
   Аккорды песен Кабриолет - Цепи (1524)
Поиск
Статистика

Добавлено аккордов: 2102



Аккорды к песням нашим


0-9 - A - B - C - D - E - F - G - H - I - J - K - L - M - N - O - P - Q - R - S - T - U - V - W - X - Y - Z
А - Б - В - Г - Д - Е - Ж - З - И - К - Л - М - Н - О - П - Р - С - Т - У - Ф - Х - Ц - Ч - Ш - Щ - Э - Ю - Я

Аккорд песни Агутин - Вспомни о Нем
Просмотров: 186
Дата добавления: 10.06.2010
Категория: А
Chords by DiBa (2:5020/720.10@FidoNet)

1:
dm|--1------
|-------3-
|----2----
|---------
|---------
|---------
Dm gm|-----3---
|-----3---
|---------
|---------
|-1-------
|-----3---
Gm c|----------
|---1------
|----------
|-----2----
|-------3--
|-------3--C f|-1------------
|-1------------
|-1--2---------
|-1-----3------
|-1-----3------
|-1-----------F
вспомни о нем, как без него все удалось тебе-е.
dm|--1------
|-------3-
|----2----
|---------
|---------
|---------
Dm gm|-----3---
|-----3---
|---------
|---------
|-1-------
|-----3---
Gm c|----------
|---1------
|----------
|-----2----
|-------3--
|-------3--C f|-1------------
|-1------------
|-1--2---------
|-1-----3------
|-1-----3------
|-1-----------F
вспомни о нем, его одного нам не вернуть тепе-ерь.
dm|--1------
|-------3-
|----2----
|---------
|---------
|---------
Dm b|-2--------
|-2--4-----
|-2--4-----
|-2--4-----
|-2--------
|-2--------B f|-1------------
|-1------------
|-1--2---------
|-1-----3------
|-1-----3------
|-1-----------F g
|------3---
|----------
|----------
|----------
|----2-----
|------3---G
Просто вспомни сейчас: он не бывал похожим на нас
gm|-----3---
|-----3---
|---------
|---------
|-1-------
|-----3---
Gm c|----------
|---1------
|----------
|-----2----
|-------3--
|-------3--C
И все разменял на ветер.

2:
Жил как хотел, шел наугад, выбрал дорогу сам,
Мало успел, не был богат, верил твоим словам,
Может, боль и уснет, но он к тебе уже не придет,
И тихо наступит вечер.

<Припев>:
b|-2--------
|-2--4-----
|-2--4-----
|-2--4-----
|-2--------
|-2--------B f|-1------------
|-1------------
|-1--2---------
|-1-----3------
|-1-----3------
|-1-----------F c|----------
|---1------
|----------
|-----2----
|-------3--
|-------3--C
Ты вспомни о нем
am|--------
|---1----
|-----2--
|-----2--
|--------
|--------Am dm|--1------
|-------3-
|----2----
|---------
|---------
|---------
Dm b|-2--------
|-2--4-----
|-2--4-----
|-2--4-----
|-2--------
|-2--------B f|-1------------
|-1------------
|-1--2---------
|-1-----3------
|-1-----3------
|-1-----------F gm|-----3---
|-----3---
|---------
|---------
|-1-------
|-----3---
Gm c|----------
|---1------
|----------
|-----2----
|-------3--
|-------3--C
Пусть растает громкий смех в доме твоем, и опустеет дом
b|-2--------
|-2--4-----
|-2--4-----
|-2--4-----
|-2--------
|-2--------B f|-1------------
|-1------------
|-1--2---------
|-1-----3------
|-1-----3------
|-1-----------F c|----------
|---1------
|----------
|-----2----
|-------3--
|-------3--C
Ты вспомни о нем
am|--------
|---1----
|-----2--
|-----2--
|--------
|--------Am dm|--1------
|-------3-
|----2----
|---------
|---------
|---------
Dm b|-2--------
|-2--4-----
|-2--4-----
|-2--4-----
|-2--------
|-2--------B f|-1------------
|-1------------
|-1--2---------
|-1-----3------
|-1-----3------
|-1-----------F gm|-----3---
|-----3---
|---------
|---------
|-1-------
|-----3---
Gm c|----------
|---1------
|----------
|-----2----
|-------3--
|-------3--C
Hочь обнимет мокрый снег, и в тишине вспомни о нем.

3:
Было как сон, так и прошло, хочешь ты все забыть.
Только одно: сможет ли кто так же, как он, любить?
вспомни, как в первый раз, тот океан его серых глаз,
И он к тебе на миг вернется.

<Припев 2 раза.>
Агутин - Вспомни о Нем аккорд песни