Понедельник, 28.09.2020, 01:30
Популярные аккорды
   Аккорды песен Башкирия (3665)
   Аккорды песен 5nizza - Пятница (2845)
   Аккорды песен Я у девушка юный бил ночью в гостях... (2235)
   Аккорды песен Вот идет караван... (2190)
   Аккорды песен Лесоповал - Я куплю тебе дом (Белый лебедь) (2091)
   Аккорды песен Дворовые песни - Казахи (1928)
   Аккорды песен Тема из к/ф "Джентльмены удачи" (1690)
   Аккорды песен Дoждь cтyчит пo кpышaм, cлoвнo мнe нaзлo (1649)
   Аккорды песен Агата Кристи - Как на войне (1558)
   Аккорды песен Кабриолет - Цепи (1527)
Поиск
Статистика

Добавлено аккордов: 2102



Аккорды к песням нашим


0-9 - A - B - C - D - E - F - G - H - I - J - K - L - M - N - O - P - Q - R - S - T - U - V - W - X - Y - Z
А - Б - В - Г - Д - Е - Ж - З - И - К - Л - М - Н - О - П - Р - С - Т - У - Ф - Х - Ц - Ч - Ш - Щ - Э - Ю - Я

Аккорд песни Аквариум - Гиневер
Просмотров: 180
Дата добавления: 10.06.2010
Категория: А
|---3-----------5-6-----5-----------3----5---1------------|
|-------------------------------------------------------3-|
|------------0--------------------------------------------|
|---------0-------------------3--------------------3------|
|---------------------------------------------------------|
|---3-------------------1--------------------3------------|

|--1---3---------------------------------5--6----5------3-|
|------------------------8--------------------------------|
|-------------------0------------0------------------------|
|-----------0-------7---------0-------0---------------3---|
|---------------------------------------------------------|
|--------------------------3-------------------1----------|

|--1-------------1-------------------5-----------3--6--8--|
|-------------3------3------------------------------------|
|-------------------------------0----------------3--------|
|--------------------------0---------------3--------------|
|-------3-------------------------------------------------|
|--------------------3---------------6-----------------3--|

|----------6----5--6-----------5--3---5-------------------|
|----------------------------------------------------3----|
|----0--------5-------------------------------------------|
|----------------------------------------------0----------|
|------------------------5-----5---------------------0----|
|-----------------------------------------0---------------|

|--3-------------5-6----5------------3-5-----1------------|
|-------------------------------------------------------3-|
|---------------------------------------------------------|
|----------0-----0-------------------3--------------------|
|------------------------------3-------------------3----3-|
|----3---------------------------------------1------------|

|--1--3-------10---------------------10-----------------------|
|-----------------11----10--8------------------10--3-------3--|
|------------------------------------------10-----------------|
|----------0--------------------------------------------0-----|
|------------------------------------------10-----------------|
|--------------------------------10----------------3----------|

|-------3--3---5--5-6----6-8--3---6--5-3-----5-------6--5-----|
|---3------------------------------------------------------6--|
|-----0-------------------------------------------------------|
|------------0----5-------------------------------------------|
|------------------------------------3------------5-----------|
|------------------------5----1-------------------------5-----|

|-----------10--6--5------3-------10--------------------------|
|---3------------------------------------10-----3--------3--3-|
|--------0---------------------------10-----------------------|
|--------------------5---------0----------------------0-----0-|
|---------------0---------------------10----------------------|
|---3---------------------3---------------------3-------------|

|---3--3--5--0--6--6----8--3---6--5--3--5---------6---5-----3-|
|--------------------------------------------------------6----|
|------------0------------------------------------------------|
|-------------------------------------------------------------|
|------0-----------0--------------3------------5--------------|
|--------------------------1--------------------------5-------|

|----------6--6-5--8---10-------8--6--------8-------6--5----|
|-----------------------------------------------------------|
|-------0----------------------------------------5-----5----|
|----------------------------8------------------------------|
|-------------8--------------------8------------------------|
|--3-------------------1------------------8-----------------|

|--1--------5----------0-------------------3--3--5--5--6--|
|--------------3-----------------3------3-----------------|
|--------0-----0------------------------------------------|
|---------------------------0-----------------0-----5-----|
|--------------------------------0------------------------|
|--3------------------------------------------------------|

|---6--8--8--6--5--3---5-------6--5-------3-------10---6-----5-------8--6---|
|------------------------------------6--------------------------------------|
|-------------------------------------------0----------0----------3---------|
|---------------------------------------------------------------------------|
|---------------------------------------------------------------------------|
|---5-----8-------------------------------3------------------3----------8---|

|---8-------6---------6-------5----3------5-----------------3--3--5--0--6-|
|--------------5-------------------------------------3---3----------------|
|--------5-----------------------------------------------------------0----|
|--------------5----------5-----5------------------0-----------0----------|
|----------------------------------------------5--------------------------|
|---8----------------------------------------------------3----------------|

|----6--8--8--6--5--3----5------6--5----------3------10--6--5-|
|---------------------------------------6---------------------|
|-------------------------------------------------------------|
|----0----------------------------------------0---------------|
|------------------------------------5------------------------|
|----------8-------------5------------------------------------|

|---3------10--6---------15-|
|-----------------8---------|
|---------------------------|
|---0-----------------------|
|---------------------------|
|----------------------3----|
Аквариум - Гиневер аккорд песни