Воскресенье, 29.11.2020, 08:08
Популярные аккорды
   Аккорды песен Башкирия (3692)
   Аккорды песен 5nizza - Пятница (2889)
   Аккорды песен Я у девушка юный бил ночью в гостях... (2282)
   Аккорды песен Вот идет караван... (2221)
   Аккорды песен Лесоповал - Я куплю тебе дом (Белый лебедь) (2117)
   Аккорды песен Дворовые песни - Казахи (1961)
   Аккорды песен Тема из к/ф "Джентльмены удачи" (1723)
   Аккорды песен Дoждь cтyчит пo кpышaм, cлoвнo мнe нaзлo (1672)
   Аккорды песен Агата Кристи - Как на войне (1584)
   Аккорды песен Кабриолет - Цепи (1555)
Поиск
Статистика

Добавлено аккордов: 2102



Аккорды к песням нашим


0-9 - A - B - C - D - E - F - G - H - I - J - K - L - M - N - O - P - Q - R - S - T - U - V - W - X - Y - Z
А - Б - В - Г - Д - Е - Ж - З - И - К - Л - М - Н - О - П - Р - С - Т - У - Ф - Х - Ц - Ч - Ш - Щ - Э - Ю - Я

Аккорд песни Аквариум - Nuit De Noel
Просмотров: 192
Дата добавления: 10.06.2010
Категория: А
Проигрыш (правая рука плавно спускается вниз):



hm|--2-------
|--2-3-----
|--2---4---
|--2---4---
|--2-------
|--2-------Hm(II) hm|--2-------
|--2-3-----
|--2---4---
|--2---4---
|--2-------
|--2-------Hm(II) em|-----------
|-----------
|-----------
|-----2-----
|-----2-----
|-----------
Em F#(II) hm|--2-------
|--2-3-----
|--2---4---
|--2---4---
|--2-------
|--2-------Hm(II) (резко)

1-|-------------2-------0--2--0--|----------2-|--2-------|-

2-|----3-------3-------0---------|----2-------|--3-------|-

3-|---4-------4-------0----------|---3--------|--4-------|-

4-|--4-------4-------2-----------|--4---------|--4-------|-

5-|-2----------------------------|-4----------|--2-------|-

6-|------------------------------|------------|----------|-



F# hm|--2-------
|--2-3-----
|--2---4---
|--2---4---
|--2-------
|--2-------Hm

Я опять опускаю письмо,

hm|--2-------
|--2-3-----
|--2---4---
|--2---4---
|--2-------
|--2-------Hm

И тихонько целую страницы,

h7|---2-----
|---------
|---2-----
|-1-------
|---------
|---2-----H7 em|-----------
|-----------
|-----------
|-----2-----
|-----2-----
|-----------
Em

И, открыв ваши злые духи,

a|----------
|---2------
|---2------
|---2------
|----------
|----------A d|---2------
|-----3----
|---2------
|----------
|----------
|----------D F#

Я вдыхаю их тягостный хмель...

hm|--2-------
|--2-3-----
|--2---4---
|--2---4---
|--2-------
|--2-------Hm hm|--2-------
|--2-3-----
|--2---4---
|--2---4---
|--2-------
|--2-------Hm

И тогда мне так ясно видны

h7|---2-----
|---------
|---2-----
|-1-------
|---------
|---2-----H7 em|-----------
|-----------
|-----------
|-----2-----
|-----2-----
|-----------
Em

Эти тонкие, черные птицы,

e hm|--2-------
|--2-3-----
|--2---4---
|--2---4---
|--2-------
|--2-------Hm

Что летят из флакона на юг,

em|-----------
|-----------
|-----------
|-----2-----
|-----2-----
|-----------
Em F# hm|--2-------
|--2-3-----
|--2---4---
|--2---4---
|--2-------
|--2-------Hm

Из флакона Nuit de Noel.



F# hm|--2-------
|--2-3-----
|--2---4---
|--2---4---
|--2-------
|--2-------Hm

Скоро будет весна,

a|----------
|---2------
|---2------
|---2------
|----------
|----------A D

И венеции юные скрипки

A

Распоют вашу грусть,

e D

Растанцуют тоску и печаль.

hm|--2-------
|--2-3-----
|--2---4---
|--2---4---
|--2-------
|--2-------Hm

И тогда станут слаще грехи,

h7|---2-----
|---------
|---2-----
|-1-------
|---------
|---2-----H7 em|-----------
|-----------
|-----------
|-----2-----
|-----2-----
|-----------
Em

И видней голубые ошибки.

em|-----------
|-----------
|-----------
|-----2-----
|-----2-----
|-----------
Em g
|------3---
|----------
|----------
|----------
|----2-----
|------3---G hm|--2-------
|--2-3-----
|--2---4---
|--2---4---
|--2-------
|--2-------Hm

Hе жалейте весной поцелуев,

em|-----------
|-----------
|-----------
|-----2-----
|-----2-----
|-----------
Em F# hm|--2-------
|--2-3-----
|--2---4---
|--2---4---
|--2-------
|--2-------Hm

Когда расцветает миндаль!





em|-----------
|-----------
|-----------
|-----2-----
|-----2-----
|-----------
Em F# hm|--2-------
|--2-3-----
|--2---4---
|--2---4---
|--2-------
|--2-------Hm

Обо мне не волнуйся, мой друг, <зту строку точно не помню>

a|----------
|---2------
|---2------
|---2------
|----------
|----------A D

Я озябшая, старая птица,

a|----------
|---2------
|---2------
|---2------
|----------
|----------A e

Мой хозяин - жестокий шарманщик

D

Меня заставляет плясать.

hm|--2-------
|--2-3-----
|--2---4---
|--2---4---
|--2-------
|--2-------Hm

вынимая билетики счастья,

hm|--2-------
|--2-3-----
|--2---4---
|--2---4---
|--2-------
|--2-------Hm em|-----------
|-----------
|-----------
|-----2-----
|-----2-----
|-----------
Em

Я гляжу в несчастливые лица.

e hm|--2-------
|--2-3-----
|--2---4---
|--2---4---
|--2-------
|--2-------Hm

И под гнусные звуки шарманки

em|-----------
|-----------
|-----------
|-----2-----
|-----2-----
|-----------
Em F# hm|--2-------
|--2-3-----
|--2---4---
|--2---4---
|--2-------
|--2-------Hm

Мне мучительно хочется спать.





F# hm|--2-------
|--2-3-----
|--2---4---
|--2---4---
|--2-------
|--2-------Hm

И опять опускаю письмо,

a|----------
|---2------
|---2------
|---2------
|----------
|----------A D

И тихонько целую страницы,

a|----------
|---2------
|---2------
|---2------
|----------
|----------A e

Hе вините за грустный конец,

D

И за слез моих тягостный хмель.

hm|--2-------
|--2-3-----
|--2---4---
|--2---4---
|--2-------
|--2-------Hm

Это все ваши злые духи,

em|-----------
|-----------
|-----------
|-----2-----
|-----2-----
|-----------
Em em|-----------
|-----------
|-----------
|-----2-----
|-----2-----
|-----------
Em

Это черные мысли, как птицы,

e hm|--2-------
|--2-3-----
|--2---4---
|--2---4---
|--2-------
|--2-------Hm

Что летят из флакона на юг,

em|-----------
|-----------
|-----------
|-----2-----
|-----2-----
|-----------
Em F# hm|--2-------
|--2-3-----
|--2---4---
|--2---4---
|--2-------
|--2-------Hm

Из флакона Nuit de Noel.





Аккорды:



Струна hm|--2-------
|--2-3-----
|--2---4---
|--2---4---
|--2-------
|--2-------Hm(II) em|-----------
|-----------
|-----------
|-----2-----
|-----2-----
|-----------
Em F#(II) h7|---2-----
|---------
|---2-----
|-1-------
|---------
|---2-----H7 a|----------
|---2------
|---2------
|---2------
|----------
|----------A d|---2------
|-----3----
|---2------
|----------
|----------
|----------D G



1 2 0 2 1 0 2 3

2 3 0 2 0 2 3 0

3 4 0 3 2 2 2 0

4 4 2 4 1 2 0 0

5 2 2 4 2 0 x 2

6 2 0 2 x x x 3



все hm|--2-------
|--2-3-----
|--2---4---
|--2---4---
|--2-------
|--2-------Hm и F# играются барре на II ладу. Обозначение e - тихий щипок открытой

первой струны (лучше спуститься по 3-2-1 струнам).
Аквариум - Nuit De Noel аккорд песни