Воскресенье, 27.09.2020, 22:29
Популярные аккорды
   Аккорды песен Башкирия (3665)
   Аккорды песен 5nizza - Пятница (2845)
   Аккорды песен Я у девушка юный бил ночью в гостях... (2235)
   Аккорды песен Вот идет караван... (2190)
   Аккорды песен Лесоповал - Я куплю тебе дом (Белый лебедь) (2091)
   Аккорды песен Дворовые песни - Казахи (1928)
   Аккорды песен Тема из к/ф "Джентльмены удачи" (1690)
   Аккорды песен Дoждь cтyчит пo кpышaм, cлoвнo мнe нaзлo (1649)
   Аккорды песен Агата Кристи - Как на войне (1558)
   Аккорды песен Кабриолет - Цепи (1527)
Поиск
Статистика

Добавлено аккордов: 2102



Аккорды к песням нашим


0-9 - A - B - C - D - E - F - G - H - I - J - K - L - M - N - O - P - Q - R - S - T - U - V - W - X - Y - Z
А - Б - В - Г - Д - Е - Ж - З - И - К - Л - М - Н - О - П - Р - С - Т - У - Ф - Х - Ц - Ч - Ш - Щ - Э - Ю - Я

Аккорд песни Аквариум - Под небом голубым
Просмотров: 216
Дата добавления: 10.06.2010
Категория: А
 ^H - hammer-on



Fill 1



am|--------
|---1----
|-----2--
|-----2--
|--------
|--------Am h|-2--------
|-2--4-----
|-2--4-----
|-2--4-----
|-2--------
|-2--------H h|-2--------
|-2--4-----
|-2--4-----
|-2--4-----
|-2--------
|-2--------H dm|--1------
|-------3-
|----2----
|---------
|---------
|---------
Dm

---0---------------|---0-------------0-|---1-0-----------|-1-0---------|-----|

---1-0-------0^1---|-----3-1-0-1-1^3---|---3---3-1-0-1-3-|-----3-1-3-0-|-----|

---2---2-1-2-----2-|-------------------|-2-2-------------|-----------1-|-1---|

-2-2---------------|-2-----------------|---0-------------|-------------|---2-|

---0---------------|---0-------0-------|-----------------|-------------|-----|

-------------------|-------------------|-----------------|---0-------0-|-----|



am|--------
|---1----
|-----2--
|-----2--
|--------
|--------Am h|-2--------
|-2--4-----
|-2--4-----
|-2--4-----
|-2--------
|-2--------H h|-2--------
|-2--4-----
|-2--4-----
|-2--4-----
|-2--------
|-2--------H dm|--1------
|-------3-
|----2----
|---------
|---------
|---------
Dm

---0---------------|---0-------------0-|---1-0-----------|-1-0---------|-----|

---1-0-------0^1---|-----3-1-0-1-1^3---|---3---3-1-0-1-3-|-----3-1-3-0-|-----|

---2---2-1-2-----2-|-------------------|-2-2-------------|-----------1-|-1---|

-2-2---------------|-2-----------------|---0-------------|-------------|---2-|

---0---------------|---0-------0-------|-----------------|-------------|-----|

-------------------|-------------------|-----------------|---0-------0-|-----|



End of Fill 1



Fill 2

-3-3-----3-3-1-0-1-5-|-1-1-----1-1-0---0-3-|-------5-10-8-7-5-5-4-|

-------2-------------|-------0-------4-----|-3-5-6----------------|

-----2---------------|-----0---------------|----------------------|

-----------0---------|---------------------|-0--------------------|

---0-----------------|---2-------3---------|----------------------|

---------------------|---------------------|------------------0---|



-------5-10-8-7-5-5-4-|-5-|

-3-5-6----------------|---|

----------------------|---|

-0--------------------|---|

----------------------|-0-|

------------------0---|---|



End of Fill 2



Fill 1



with Fill 1

Под небом голубым есть город -золотой

С про-рачными воротами и яркою з-вез-дой.

А в городе том сад, всЈ травы да цветы,

Гуляют там животные невиданной красы.



with Fill 2

Одно как жЈлтый огнегривый лев,

Другое - вол, испоненный очей,

С ними з-олотой орЈл небесный,

Чей так светел вз-ор нез-абываемый.



Fill 1



with Fill 1

А в небе голубом горит одна з-ве-да.

Она твоя, о ангел мой, она твоя всегда.

Кто любит, тот любим. Кто светел, тот и свят.

Пускай ведЈт з-ве-да тебя дорогой в дивный сад.



with Fill 2

Тебя там встретит огнегривый лев

И синий вол, исполненный очей,

С ними з-олотой орЈл небесный,

Чей так светел вз-ор нез-абываемый.



1-st takt of Fill 1
Аквариум - Под небом голубым аккорд песни