Понедельник, 26.10.2020, 07:20
Популярные аккорды
   Аккорды песен Башкирия (3680)
   Аккорды песен 5nizza - Пятница (2872)
   Аккорды песен Я у девушка юный бил ночью в гостях... (2259)
   Аккорды песен Вот идет караван... (2206)
   Аккорды песен Лесоповал - Я куплю тебе дом (Белый лебедь) (2107)
   Аккорды песен Дворовые песни - Казахи (1946)
   Аккорды песен Тема из к/ф "Джентльмены удачи" (1707)
   Аккорды песен Дoждь cтyчит пo кpышaм, cлoвнo мнe нaзлo (1660)
   Аккорды песен Агата Кристи - Как на войне (1573)
   Аккорды песен Кабриолет - Цепи (1544)
Поиск
Статистика

Добавлено аккордов: 2102



Аккорды к песням нашим


0-9 - A - B - C - D - E - F - G - H - I - J - K - L - M - N - O - P - Q - R - S - T - U - V - W - X - Y - Z
А - Б - В - Г - Д - Е - Ж - З - И - К - Л - М - Н - О - П - Р - С - Т - У - Ф - Х - Ц - Ч - Ш - Щ - Э - Ю - Я

Аккорд песни Аквариум - Тpи сестpы
Просмотров: 200
Дата добавления: 10.06.2010
Категория: А
 g
|------3---
|----------
|----------
|----------
|----2-----
|------3---G D

|-3---5---/7---5--3--------3-----3--------7--5--2/3/3-0-----------|

|--------------------0---0---0-----0---0----------------3-3-----3-|

|----------------------0-------0-----0------------------------2---|

|-------------------------------------------------------0-0-------|

|-----------------------------------------------------------------|

|--------------------3--------------------------------------------|

(тpи сестpы, тpи сестpы чеpно-белой..... ма -

am|--------
|---1----
|-----2--
|-----2--
|--------
|--------Am c|----------
|---1------
|----------
|-----2----
|-------3--
|-------3--C D

|--------0-----0---------0---------------3-----2-0---------------0-|

|--1---1---1-----1-----1---1-----------1---1-------3-------0-1-0---|

|----2-------2-------2-------2-------0-------0-----------2---------|

|--------------------------------------------------0---------------|

|--0---------------0-----------0-1-2-------------------------------|

|------------------------------------------------------------------|

-сти, в том далеком кpаю, где не..по-

g
|------3---
|----------
|----------
|----------
|----2-----
|------3---G D

|---------3---------2-----|----------------------------------------------------

|-0-0---0---0---0---3-----|----------------------------------------------------

|-----0-------0---0-2-----|----------------------------------------------------

|-------------------0-----|----------------------------------------------------

|-------------------------|---------------------------------------------------

|-3-3---------------------|----------------------------------------------------

-езда) g
|------3---
|----------
|----------
|----------
|----2-----
|------3---G d|---2------
|-----3----
|---2------
|----------
|----------
|----------D am|--------
|---1----
|-----2--
|-----2--
|--------
|--------Am

Что ж ты смотришь совой, дышишь словно рухнул с ду-ба

c|----------
|---1------
|----------
|-----2----
|-------3--
|-------3--C d|---2------
|-----3----
|---2------
|----------
|----------
|----------D g
|------3---
|----------
|----------
|----------
|----2-----
|------3---G D

Посмотри на себя - хвост торчком, глаза востры

Это все пустяки - в жизни все легко и любо

Пока вдруг у тебя на пути не возникнут три сестры

У них кудри как шелк, а глаза как чайны блюдца

У них семь тысяч лет без пардонов, без мерси

У них сердце внутри, они плачут и смеются

Посмотри им в зрачки и скажи: Прощай, прости



ПРИПЕв (см. таблатуpу)

Три сестры, три сестры черно-бело-рыжей масти

в том далеком краю где не ходят поезда

Три сестры, три сестры разорвут тебя на части

Сердце вверх, ноги вниз, остальное что куда

А в саду благодать, пахнет медом и сиренью

Hавсегда, навсегда, навсегда - я шепчу - приди, приди

Кто зажег в тебе свет - обернется твоей тенью

И в ночной тишине вырвет сердце из груди

ПРИПЕв.
Аквариум - Тpи сестpы аккорд песни