Пятница, 25.09.2020, 18:14
Популярные аккорды
   Аккорды песен Башкирия (3664)
   Аккорды песен 5nizza - Пятница (2845)
   Аккорды песен Я у девушка юный бил ночью в гостях... (2234)
   Аккорды песен Вот идет караван... (2188)
   Аккорды песен Лесоповал - Я куплю тебе дом (Белый лебедь) (2088)
   Аккорды песен Дворовые песни - Казахи (1926)
   Аккорды песен Тема из к/ф "Джентльмены удачи" (1687)
   Аккорды песен Дoждь cтyчит пo кpышaм, cлoвнo мнe нaзлo (1648)
   Аккорды песен Агата Кристи - Как на войне (1558)
   Аккорды песен Кабриолет - Цепи (1524)
Поиск
Статистика

Добавлено аккордов: 2102



Аккорды к песням нашим


0-9 - A - B - C - D - E - F - G - H - I - J - K - L - M - N - O - P - Q - R - S - T - U - V - W - X - Y - Z
А - Б - В - Г - Д - Е - Ж - З - И - К - Л - М - Н - О - П - Р - С - Т - У - Ф - Х - Ц - Ч - Ш - Щ - Э - Ю - Я

Аккорд песни Аквариум - Удачи тем кто ищет
Просмотров: 191
Дата добавления: 10.06.2010
Категория: А
(em|-----------
|-----------
|-----------
|-----2-----
|-----2-----
|-----------
Em-c7|---------
|--1------
|---------
|----2----
|--1------
|---------C7)
em|-----------
|-----------
|-----------
|-----2-----
|-----2-----
|-----------
Em hm|--2-------
|--2-3-----
|--2---4---
|--2---4---
|--2-------
|--2-------Hm
Удачи тем кто ищет
am|--------
|---1----
|-----2--
|-----2--
|--------
|--------Am hm|--2-------
|--2-3-----
|--2---4---
|--2---4---
|--2-------
|--2-------Hm
Покою тем кто спит
em|-----------
|-----------
|-----------
|-----2-----
|-----2-----
|-----------
Em hm|--2-------
|--2-3-----
|--2---4---
|--2---4---
|--2-------
|--2-------Hm
Гаснущие листья
am|--------
|---1----
|-----2--
|-----2--
|--------
|--------Am hm|--2-------
|--2-3-----
|--2---4---
|--2---4---
|--2-------
|--2-------Hm
Затоптаны в гранит.
em|-----------
|-----------
|-----------
|-----2-----
|-----2-----
|-----------
Em cm|--3------
|--3-4----
|--3---5--
|--3---5--
|--3------
|--3------
Cm
Печальнее печали
F em|-----------
|-----------
|-----------
|-----2-----
|-----2-----
|-----------
Em
назвать сестрой печаль
f|-1------------
|-1------------
|-1--2---------
|-1-----3------
|-1-----3------
|-1-----------F hm|--2-------
|--2-3-----
|--2---4---
|--2---4---
|--2-------
|--2-------Hmaj7
Которую камень em|-----------
|-----------
|-----------
|-----2-----
|-----2-----
|-----------
Em - c7|---------
|--1------
|---------
|----2----
|--1------
|---------C7
хранит.

А в небе черной тушью
чугун и всплеск ветвей
в строку твою сплетутся
и станет ночь светлей.
Да будет шаг твой легок,
пока не кончен сон
прекраснейший в жизни твоей.
Аквариум - Удачи тем кто ищет аккорд песни