Четверг, 24.09.2020, 16:51
Популярные аккорды
   Аккорды песен Башкирия (3662)
   Аккорды песен 5nizza - Пятница (2844)
   Аккорды песен Я у девушка юный бил ночью в гостях... (2233)
   Аккорды песен Вот идет караван... (2187)
   Аккорды песен Лесоповал - Я куплю тебе дом (Белый лебедь) (2087)
   Аккорды песен Дворовые песни - Казахи (1925)
   Аккорды песен Тема из к/ф "Джентльмены удачи" (1686)
   Аккорды песен Дoждь cтyчит пo кpышaм, cлoвнo мнe нaзлo (1646)
   Аккорды песен Агата Кристи - Как на войне (1557)
   Аккорды песен Кабриолет - Цепи (1522)
Поиск
Статистика

Добавлено аккордов: 2102



Аккорды к песням нашим


0-9 - A - B - C - D - E - F - G - H - I - J - K - L - M - N - O - P - Q - R - S - T - U - V - W - X - Y - Z
А - Б - В - Г - Д - Е - Ж - З - И - К - Л - М - Н - О - П - Р - С - Т - У - Ф - Х - Ц - Ч - Ш - Щ - Э - Ю - Я

Аккорд песни Алиса - Черная метка
Просмотров: 191
Дата добавления: 12.06.2010
Категория: А
a7|---------
|--2------
|---------
|--2------
|---------
|---------A7

Чуткий час времени \Ч\,

d|---2------
|-----3----
|---2------
|----------
|----------
|----------D

Звезд парча на моем плече,

a7|---------
|--2------
|---------
|--2------
|---------
|---------A7

В чарах порчи лечу в луче,

d|---2------
|-----3----
|---2------
|----------
|----------
|----------D a5|-----------
|-----------
|-----------
|-----7-----
|-----7-----
|--5--------A5

Моя черная метка, метка...



a7|---------
|--2------
|---------
|--2------
|---------
|---------A7

Звездам ночь, свет Отцу,

d|---2------
|-----3----
|---2------
|----------
|----------
|----------D

Пыль дорог моему лицу,

a7|---------
|--2------
|---------
|--2------
|---------
|---------A7

До конца танцевать к концу,

d|---2------
|-----3----
|---2------
|----------
|----------
|----------D a5|-----------
|-----------
|-----------
|-----7-----
|-----7-----
|--5--------A5

Моя черная метка, метка...

g
|------3---
|----------
|----------
|----------
|----2-----
|------3---G d|---2------
|-----3----
|---2------
|----------
|----------
|----------D

Моя черная метка - ROCK!



A

Если ты знаешь, как жить,

g
|------3---
|----------
|----------
|----------
|----2-----
|------3---G d|---2------
|-----3----
|---2------
|----------
|----------
|----------D

Рискни ответить мне:

a5|-----------
|-----------
|-----------
|-----7-----
|-----7-----
|--5--------A5 G5 G5# a5|-----------
|-----------
|-----------
|-----7-----
|-----7-----
|--5--------A5 G5G5# a5|-----------
|-----------
|-----------
|-----7-----
|-----7-----
|--5--------A5G5G5#a5|-----------
|-----------
|-----------
|-----7-----
|-----7-----
|--5--------A5 C5 a5|-----------
|-----------
|-----------
|-----7-----
|-----7-----
|--5--------A5

Кто мог бы стать твоим проводником в небо?



А5

Я сволочь Весны, я Осени шлак,

Bb a5|-----------
|-----------
|-----------
|-----7-----
|-----7-----
|--5--------A5

Я тебе не друг и не враг, а так.

C5 H5 Bb a5|-----------
|-----------
|-----------
|-----7-----
|-----7-----
|--5--------A5

Мою кровь сосет придорожный мак,

F5 G5#

Моя черная метка, черная метка.



А5

Сколько было тех, кто шагнул за дверь

На моих глазах. Где они теперь?

Где они теперь, в ком оставил зверь

F5 G5#

Свою черную метку, черную метку.



А5

Кто здесь лучше, чем ты?

Кто здесь хуже, чем я?

C5 H5 a5|-----------
|-----------
|-----------
|-----7-----
|-----7-----
|--5--------A5

Кому на этом свете к лицу цветы?

C5 H5 a5|-----------
|-----------
|-----------
|-----7-----
|-----7-----
|--5--------A5

Кого каким из нас успокоит земля?







.

.



C5 H5 Bb a5|-----------
|-----------
|-----------
|-----7-----
|-----7-----
|--5--------A5

Мой стон тревожит ветер.

C5 H5 Bb a5|-----------
|-----------
|-----------
|-----7-----
|-----7-----
|--5--------A5 Э: H5 a5|-----------
|-----------
|-----------
|-----7-----
|-----7-----
|--5--------A5 :Э

Твой смех в горах рождает гром,

D5 C5 G5 F5 ? a5|-----------
|-----------
|-----------
|-----7-----
|-----7-----
|--5--------A5

Ей, брат! Летим по жизни, как дети,

А7 Д

Когда мы поем!



Чуткий час времени \Ч\,

Звезд парча на моем плече,

В чарах порчи лечу в луче,

Моя черная метка, метка...

Звездам ночь, свет Отцу,

Пыль дорог моему лицу,

До конца танцевать к концу,

Моя черная метка, метка...

Моя черная метка - РОЦК!



Если ты знаешь, как жить,

Рискни ответить мне:

Кто мог бы стать твоим проводником в небо?
Алиса - Черная метка аккорд песни