Воскресенье, 27.09.2020, 09:35
Популярные аккорды
   Аккорды песен Башкирия (3664)
   Аккорды песен 5nizza - Пятница (2845)
   Аккорды песен Я у девушка юный бил ночью в гостях... (2234)
   Аккорды песен Вот идет караван... (2190)
   Аккорды песен Лесоповал - Я куплю тебе дом (Белый лебедь) (2090)
   Аккорды песен Дворовые песни - Казахи (1928)
   Аккорды песен Тема из к/ф "Джентльмены удачи" (1689)
   Аккорды песен Дoждь cтyчит пo кpышaм, cлoвнo мнe нaзлo (1649)
   Аккорды песен Агата Кристи - Как на войне (1558)
   Аккорды песен Кабриолет - Цепи (1525)
Поиск
Статистика

Добавлено аккордов: 2102



Аккорды к песням нашим


0-9 - A - B - C - D - E - F - G - H - I - J - K - L - M - N - O - P - Q - R - S - T - U - V - W - X - Y - Z
А - Б - В - Г - Д - Е - Ж - З - И - К - Л - М - Н - О - П - Р - С - Т - У - Ф - Х - Ц - Ч - Ш - Щ - Э - Ю - Я

Аккорд песни Алиса - Чую гибель
Просмотров: 195
Дата добавления: 12.06.2010
Категория: А
 Intro
e|------------------------------------------------------------------------------|
h|------------------------------------------------------------------------------|
G|------------------------------------------------------------------------------|
D|------------------------------------------------------------------------------|
A|-------------------3----5-3---3-----------------------------------------------|
E|--3--5-6--3-5-6-3----6------6---5---------------------------------------------|

Куплет
e|------------------------------------------------------------------------------|
h|------------------------------------------------------------------------------|
G|------------------------------------------------------------------------------|
D|------------------------------------------------------------------------------|
A|--------5---5---------3---3--------3---3--------5---5-------------------------|
E|--3-3-3---3-----1-1-1---1----1-1-1---1----3-3-3---3---------------------------|

Припев
e|--------------------------------------------------------------------------------------|
h|-----------------------------------------------------------13-------------------------|
G|--------------------------------------------------12-14-15----15-14-15-14-12-14-15-12-|
D|--5--3---------------------------------5--3-------------------------------------------|
A|--3--1--3---------3--------------------3--1--3----------------------------------------|
E|--------1---3-5-6----6-5-6-5-3-5-6-3---------1----------------------------------------|

e|------------------------------------------------------------------------------|
h|------------------------------------------------------------------------------|
G|------------------------------------------------------------------------------|
D|--5--3------8-8--7-7--10-10-8-8-----------------------------------------------|
A|--3--1--3---6-6--5-5--8--8--6-6-----------------------------------------------|
E|--------1---------------------------------------------------------------------|

2.куплет
e|------------------------------------------------------------------------------|
h|------------------------------------------------------------------------------|
G|------------------------------------------------------------------------------|
D|------------------------------------------------------------------------------|
A|--5-----3-3----3----5-5-------------------------------------------------------|
E|--3-----1-1----1----3-3-------------------------------------------------------|

Переход
e|---------------------------------|----------------s12-------------------------|
h|-------------^-^-----------^-^---|--------------------------------------------|
G|-------------9-9-----------7-7---|--------------------------------------------|
D|---------------------------------|---7-7-5-7----------------------------------|
A|-1----3----------1---3-----------|---5-5-3-5----------------------------------|
E|---3----3----------3---3---------|--------------------------------------------|



Лесною стороною
Под ясной звездою
Тропою оленя
Гуляет Емеля.
И все ему рады -
Звери, птицы и гады,
Деревья и травы,
Поля и дубравы.
Покуда есть силы,
Покуда есть духу,
Hе порваны жилы,
Hе вспорото брюхо.
Покуда есть мочи,
Покуда есть семя,
Орeт и хохочет,
Гуляет Емеля.
И славит свободу
Сквозь дыбы изгибы
Hа радость народу,
Себе на погибель.


Gm F
Кто-то бьётся в поле,
F Gm
Кто-то - в грязь лицом.

Случай правит пулей,

Ворон - мертвецом.

Место лютой сечи

Поросло травой.

Больно жгучи речи,

Бой не за горой.

Кости на погосте,

Луч на алтаре,

Страх пылает злостью,

Как звёзды на заре.

Распрямлюсь пружиной,

Подниму народ,

Вольная дружина

Собралась в поход.
Cm B F Gm
Кто смел снять с нас чувство вины?

Кто примет огонь на себя?

Кто слышит поступь грядущей войны?
Cm B F Eb Dm F Eb
Что оставим мы после себя?

Братские могилы

Переполнены.

Смерть серпом косила

Буйны головы.

Рваную рубаху

Пулями латай.

Топоры да плаха

По дороге в рай.

Чую гибель!

Больно вольно дышится!

Чую гибель!

Весело живём.

Чую гибель!

Кровушкой распишемся!

Чую гибель!

Хорошо поём!



Лесной стороною

Под ясной звездою

Тропою оленя

Гуляет Емеля.

И все ему рады -

Звери, птицы и гады,

Деревья и травы,

Поля и дубравы.

Покуда есть силы,

Покуда есть духу,

Не порваны жилы,

Не вспорото брюхо.

Покуда есть мочи,

Покуда есть семя,

Орет и хохочет,

Гуляет Емеля.

И славит свободу

Сквозь дыбы изгибы

На радость народу,

Себе на погибель.
Алиса - Чую гибель аккорд песни