Воскресенье, 27.09.2020, 09:11
Популярные аккорды
   Аккорды песен Башкирия (3664)
   Аккорды песен 5nizza - Пятница (2845)
   Аккорды песен Я у девушка юный бил ночью в гостях... (2234)
   Аккорды песен Вот идет караван... (2190)
   Аккорды песен Лесоповал - Я куплю тебе дом (Белый лебедь) (2090)
   Аккорды песен Дворовые песни - Казахи (1928)
   Аккорды песен Тема из к/ф "Джентльмены удачи" (1689)
   Аккорды песен Дoждь cтyчит пo кpышaм, cлoвнo мнe нaзлo (1649)
   Аккорды песен Агата Кристи - Как на войне (1558)
   Аккорды песен Кабриолет - Цепи (1525)
Поиск
Статистика

Добавлено аккордов: 2102



Аккорды к песням нашим


0-9 - A - B - C - D - E - F - G - H - I - J - K - L - M - N - O - P - Q - R - S - T - U - V - W - X - Y - Z
А - Б - В - Г - Д - Е - Ж - З - И - К - Л - М - Н - О - П - Р - С - Т - У - Ф - Х - Ц - Ч - Ш - Щ - Э - Ю - Я

Аккорд песни Алиса - Мой театр
Просмотров: 205
Дата добавления: 12.06.2010
Категория: А
Tabbed by: Bryzgalin Constantin (2:5005/58.97)

Куплеты играются примерно так:

c|----------
|---1------
|----------
|-----2----
|-------3--
|-------3--C dm|--1------
|-------3-
|----2----
|---------
|---------
|---------
Dm g
|------3---
|----------
|----------
|----------
|----2-----
|------3---G c|----------
|---1------
|----------
|-----2----
|-------3--
|-------3--C
|------------0-----------1-----1-----------3-------------0-----0-----|
|*------1-0-1---1-------3---3-----3-----3-3---3---3-----1---1-----1-*|
|----0-----------0---2-------2-------0---------0-----0-------0-------|
|------------------0-------------------------------------------------|
|*--3-----------------------------------------------3---------------*|
|---------------------------------3----------------------------------|

Затем между куплетами есть перебздрык типа:

f|-1------------
|-1------------
|-1--2---------
|-1-----3------
|-1-----3------
|-1-----------F g
|------3---
|----------
|----------
|----------
|----2-----
|------3---G
|-------1-------3--| (т.е. просто надо большим пальцем по струнам прокатиться
|*-----1-------0--*| будто зто не гитара, а арфа какая-нибудь)
|-----2-------0----|
|----3-------0-----|
|*--3-------2-----*|
|--1-------3-------| 2 раза

Мой театр - мой каприз,
Здесь нет кулис.
И мой зрительный зал -
Это я сам.
И в моей труппе сотни лиц,
И в каждом я узнаю себя.
При свете лунных брызг
Я играю жизнь.

Мой театр - мой каприз,
И кто вошЈл сюда - тот уже артист.
Здесь тысячи фигур
ведут игру.
Здесь кто-то виноват, кто-то зол, кто-то рад,
Кто-то счастлив, кто-то просто слаб.
Театр - мой мост,
Я слышу смех звЈзд.
Алиса - Мой театр аккорд песни