Вторник, 22.09.2020, 13:50
Популярные аккорды
   Аккорды песен Башкирия (3661)
   Аккорды песен 5nizza - Пятница (2844)
   Аккорды песен Я у девушка юный бил ночью в гостях... (2232)
   Аккорды песен Вот идет караван... (2186)
   Аккорды песен Лесоповал - Я куплю тебе дом (Белый лебедь) (2086)
   Аккорды песен Дворовые песни - Казахи (1923)
   Аккорды песен Тема из к/ф "Джентльмены удачи" (1685)
   Аккорды песен Дoждь cтyчит пo кpышaм, cлoвнo мнe нaзлo (1643)
   Аккорды песен Агата Кристи - Как на войне (1556)
   Аккорды песен Кабриолет - Цепи (1521)
Поиск
Статистика

Добавлено аккордов: 2102



Аккорды к песням нашим


0-9 - A - B - C - D - E - F - G - H - I - J - K - L - M - N - O - P - Q - R - S - T - U - V - W - X - Y - Z
А - Б - В - Г - Д - Е - Ж - З - И - К - Л - М - Н - О - П - Р - С - Т - У - Ф - Х - Ц - Ч - Ш - Щ - Э - Ю - Я

Аккорд песни Алиса - Пасынок звезд
Просмотров: 190
Дата добавления: 12.06.2010
Категория: А
Я подобрал самое начало вместе с басом... Дальше подбирать было лень, если кто-то
подобрал выложте сюда...

|--------5---0--------------------------------------|-8--5-x-5--8----------5---5-|
|----6-----5--------6-5---3---------3---------------|-6--5-8-5--5--6-8-6---5-8-5-|
|------5-------0------------3---------0-------------|----------------0---7-------|
|-0--------------7------------3---------0-----3-2-0-|----------------------------|
|-------------------------------1---------0---------|----------------------------|
|---------------------------------------------------|----------------------------|

Далее повторяется до куплета.
После 2-3 проигрышей вступает бас:(там сами посмотрите и сообразите)

|---------------------------------------------------------------------------|
|---------------------------------------------------------------------------|
|---------------------------------------------------------------------------|
|--------7----------------x-x-108--7h8p7----7/--/12--10/--/14--8--7--3-2-0-|
|-5----8-----7---8-7--5-------------------8---------------------------------|
|---------------------------------------------------------------------------|

|--------------------------------------------------------| Дальше идет куплет
|--------------------------------------------------------|
|--------------------------------------------------------|
|-0-2-3--------------------------------------------------|
|-------3-----5-7-85--------------8--/12--/17--7--------| Удачи в подборе
|-----------6---------6-5---/13-12-----------------6--5--|

Если что не понятно мыльте объясню...:)))))
Алиса - Пасынок звезд аккорд песни