Пятница, 22.01.2021, 18:49
Популярные аккорды
   Аккорды песен Башкирия (3718)
   Аккорды песен 5nizza - Пятница (2923)
   Аккорды песен Я у девушка юный бил ночью в гостях... (2327)
   Аккорды песен Вот идет караван... (2249)
   Аккорды песен Лесоповал - Я куплю тебе дом (Белый лебедь) (2143)
   Аккорды песен Дворовые песни - Казахи (1992)
   Аккорды песен Тема из к/ф "Джентльмены удачи" (1750)
   Аккорды песен Дoждь cтyчит пo кpышaм, cлoвнo мнe нaзлo (1696)
   Аккорды песен Агата Кристи - Как на войне (1613)
   Аккорды песен Песня из к/ф "Золото Маккены" (1594)
Поиск
Статистика

Добавлено аккордов: 2102



Аккорды к песням нашим


0-9 - A - B - C - D - E - F - G - H - I - J - K - L - M - N - O - P - Q - R - S - T - U - V - W - X - Y - Z
А - Б - В - Г - Д - Е - Ж - З - И - К - Л - М - Н - О - П - Р - С - Т - У - Ф - Х - Ц - Ч - Ш - Щ - Э - Ю - Я

Аккорд песни Алиса - Плохой Рок-Н-Ролл
Просмотров: 208
Дата добавления: 12.06.2010
Категория: А
 f|-1------------
|-1------------
|-1--2---------
|-1-----3------
|-1-----3------
|-1-----------F
Сколько себя помню,
Я всегда был глуп.
Я не любил учиться
И не мог есть суп.
Учителей я не любил,
Я им грубил,
Я им хамил,
Hичего знать не хотел,
a#|--1------
|--1--3---
|--1--3---
|--1--3---
|--1------
|--1------A#
Сидел и пел:
f|-1------------
|-1------------
|-1--2---------
|-1-----3------
|-1-----3------
|-1-----------F
- Рок-н-ролл! Рок-н-ролл!

f|-1------------
|-1------------
|-1--2---------
|-1-----3------
|-1-----3------
|-1-----------F
Я кончил школу еле-еле
в восемнадцать лет.
Потом был там,
Где сейчас меня нет.
Затем был стрит,
Там все были, как я,
Мы жили как одна семья,
И все вопили во всю глотку
День изо дня:
a#|--1------
|--1--3---
|--1--3---
|--1--3---
|--1------
|--1------A# f|-1------------
|-1------------
|-1--2---------
|-1-----3------
|-1-----3------
|-1-----------F
- Рок-н-ролл! Рок-н-ролл!

f|-1------------
|-1------------
|-1--2---------
|-1-----3------
|-1-----3------
|-1-----------F
Мне говорили:
- Hу возьмись за ум!
- Какой ты плохой!
Я рад бы зто сделать,
Hо не знал - какой рукой.
Со мной родители устали,
Им был нужен покой...
И я ушел, я жил, как ветер,
То с зтой, то с той,
a#|--1------
|--1--3---
|--1--3---
|--1--3---
|--1------
|--1------A#
И каждой пел:
f|-1------------
|-1------------
|-1--2---------
|-1-----3------
|-1-----3------
|-1-----------F
- Рок-н-ролл! Рок-н-ролл!

f|-1------------
|-1------------
|-1--2---------
|-1-----3------
|-1-----3------
|-1-----------F
Я буду делать только то, что я хочу -
Учи - не учи!
Мне - как об стенку горох -
Кричи - не кричи!
a#|--1------
|--1--3---
|--1--3---
|--1--3---
|--1------
|--1------A#
Я - оторванный ломоть,
Меня исправит лишь могила,
Так дай, пока не сдох,
Орать мне во всю силу:
a#|--1------
|--1--3---
|--1--3---
|--1--3---
|--1------
|--1------A# f|-1------------
|-1------------
|-1--2---------
|-1-----3------
|-1-----3------
|-1-----------F
- Рок-н-ролл! Рок-н-ролл!

a#|--1------
|--1--3---
|--1--3---
|--1--3---
|--1------
|--1------A#
в воронке ядерного взрыва
c|----------
|---1------
|----------
|-----2----
|-------3--
|-------3--C
И просто в кино,
a#|--1------
|--1--3---
|--1--3---
|--1--3---
|--1------
|--1------A#
И сидя на крыше,
c|----------
|---1------
|----------
|-----2----
|-------3--
|-------3--C
И стоя в метро,
a#|--1------
|--1--3---
|--1--3---
|--1--3---
|--1------
|--1------A#
И даже там, где нельзя,
c#|--1--------
|--1-2------
|--1--------
|--1---3----
|--1-----4--
|--1--------
C#
Я буду петь:
f|-1------------
|-1------------
|-1--2---------
|-1-----3------
|-1-----3------
|-1-----------F
- Рок-н-ролл!
Алиса - Плохой Рок-Н-Ролл аккорд песни