Суббота, 26.09.2020, 02:22
Популярные аккорды
   Аккорды песен Башкирия (3664)
   Аккорды песен 5nizza - Пятница (2845)
   Аккорды песен Я у девушка юный бил ночью в гостях... (2234)
   Аккорды песен Вот идет караван... (2189)
   Аккорды песен Лесоповал - Я куплю тебе дом (Белый лебедь) (2089)
   Аккорды песен Дворовые песни - Казахи (1927)
   Аккорды песен Тема из к/ф "Джентльмены удачи" (1688)
   Аккорды песен Дoждь cтyчит пo кpышaм, cлoвнo мнe нaзлo (1648)
   Аккорды песен Агата Кристи - Как на войне (1558)
   Аккорды песен Кабриолет - Цепи (1524)
Поиск
Статистика

Добавлено аккордов: 2102



Аккорды к песням нашим


0-9 - A - B - C - D - E - F - G - H - I - J - K - L - M - N - O - P - Q - R - S - T - U - V - W - X - Y - Z
А - Б - В - Г - Д - Е - Ж - З - И - К - Л - М - Н - О - П - Р - С - Т - У - Ф - Х - Ц - Ч - Ш - Щ - Э - Ю - Я

Аккорд песни Белая Гвардия - Путь на Юкон
Просмотров: 208
Дата добавления: 08.06.2010
Категория: Б
Вступление: |G|F#5+| - 2 РАЗА

g
|------3---
|----------
|----------
|----------
|----2-----
|------3---G c|----------
|---1------
|----------
|-----2----
|-------3--
|-------3--C g
|------3---
|----------
|----------
|----------
|----2-----
|------3---G h7|---2-----
|---------
|---2-----
|-1-------
|---------
|---2-----H7 em|-----------
|-----------
|-----------
|-----2-----
|-----2-----
|-----------
Em
Куда нас новый день занес, скажи, лохматый пес.
am|--------
|---1----
|-----2--
|-----2--
|--------
|--------Am7 D#dim am|--------
|---1----
|-----2--
|-----2--
|--------
|--------Am7 D7
Далеко ль форт Юкон, ведь там ты был рожден.
Клондайк собак моих свалил. И нет уж больше сил.
Бессмысленно идти, ведь сбились мы с пути.

dm|--1------
|-------3-
|----2----
|---------
|---------
|---------
Dm E7 am|--------
|---1----
|-----2--
|-----2--
|--------
|--------Am em|-----------
|-----------
|-----------
|-----2-----
|-----2-----
|-----------
Em(VII)
Пр: Но если ты следы в снегу найдешь, то не забудь,
F#7 am|--------
|---1----
|-----2--
|-----2--
|--------
|--------Am c|----------
|---1------
|----------
|-----2----
|-------3--
|-------3--C D7 em|-----------
|-----------
|-----------
|-----2-----
|-----2-----
|-----------
Em
Что твой последний путь только на Юкон, туда, где ты рожден.
g
|------3---
|----------
|----------
|----------
|----2-----
|------3---G hm|--2-------
|--2-3-----
|--2---4---
|--2---4---
|--2-------
|--2-------Hm em|-----------
|-----------
|-----------
|-----2-----
|-----2-----
|-----------
Em F#7
Пусть не подведет собачее чутье.
am|--------
|---1----
|-----2--
|-----2--
|--------
|--------Am c|----------
|---1------
|----------
|-----2----
|-------3--
|-------3--C D7 em|-----------
|-----------
|-----------
|-----2-----
|-----2-----
|-----------
Em
Только бы дойти, хотя бы нам вдвоем.

Но вот он уши вдруг прижал. На след чужой напав,
К жилью быстрей понес упряжку старый пес.
Всю жизнь лохматый добрый друг судьбу из наших рук
Безмолвно принимал, людей не раз спасал.

Пр.

c|----------
|---1------
|----------
|-----2----
|-------3--
|-------3--C D7 g
|------3---
|----------
|----------
|----------
|----2-----
|------3---G em|-----------
|-----------
|-----------
|-----2-----
|-----2-----
|-----------
Em c|----------
|---1------
|----------
|-----2----
|-------3--
|-------3--C D7 g
|------3---
|----------
|----------
|----------
|----2-----
|------3---G D7
Только на Юкон твой путь, только на Юкон.
c|----------
|---1------
|----------
|-----2----
|-------3--
|-------3--C D7 g
|------3---
|----------
|----------
|----------
|----2-----
|------3---G em|-----------
|-----------
|-----------
|-----2-----
|-----2-----
|-----------
Em c|----------
|---1------
|----------
|-----2----
|-------3--
|-------3--C D7 em|-----------
|-----------
|-----------
|-----2-----
|-----2-----
|-----------
Em
Только на Юкон твой путь, только на Юкон.
Белая Гвардия - Путь на Юкон аккорд песни