Среда, 30.09.2020, 00:50
Популярные аккорды
   Аккорды песен Башкирия (3666)
   Аккорды песен 5nizza - Пятница (2846)
   Аккорды песен Я у девушка юный бил ночью в гостях... (2236)
   Аккорды песен Вот идет караван... (2191)
   Аккорды песен Лесоповал - Я куплю тебе дом (Белый лебедь) (2092)
   Аккорды песен Дворовые песни - Казахи (1929)
   Аккорды песен Тема из к/ф "Джентльмены удачи" (1691)
   Аккорды песен Дoждь cтyчит пo кpышaм, cлoвнo мнe нaзлo (1649)
   Аккорды песен Агата Кристи - Как на войне (1558)
   Аккорды песен Кабриолет - Цепи (1527)
Поиск
Статистика

Добавлено аккордов: 2102



Аккорды к песням нашим


0-9 - A - B - C - D - E - F - G - H - I - J - K - L - M - N - O - P - Q - R - S - T - U - V - W - X - Y - Z
А - Б - В - Г - Д - Е - Ж - З - И - К - Л - М - Н - О - П - Р - С - Т - У - Ф - Х - Ц - Ч - Ш - Щ - Э - Ю - Я

Аккорд песни Дельфин - Игрушки
Просмотров: 268
Дата добавления: 09.06.2010
Категория: Д
Chords by Unknown

(играется квинтами)
Интро:
C (2 удара) D#(много ударов) - короче,если слышал - разберешь(*)
C D#
G# a#|--1------
|--1--3---
|--1--3---
|--1--3---
|--1------
|--1------A#
C D#

Басовая линия основана на зтой мелодии.

Под соло - d|---2------
|-----3----
|---2------
|----------
|----------
|----------D G# H(???)

(*)Попробую написать в табах:
G--5--5---8-8-8-8-8-8-8---5--5---8-8-8-8-8-8-8-
D--5--5---8-8-8-8-8-8-8---5--5---8-8-8-8-8-8-8-
A--3--3---6-6-6-6-6-6-6---3--3---6-6-6-6-6-6-6-
E----------------------------------------------

G-------------------------5--5---8-8-8-8-8-8-8-
D--6--6---8-8-8-8-8-8-8---5--5---8-8-8-8-8-8-8-
A--6--6---8-8-8-8-8-8-8---3--3---6-6-6-6-6-6-6-
E--4--4---6-6-6-6-6-6-6------------------------

аккорды D# и a#|--1------
|--1--3---
|--1--3---
|--1--3---
|--1------
|--1------A# играются переменным боем - т.е. по удару вверх-вниз
Дельфин - Игрушки аккорд песни