Понедельник, 28.09.2020, 17:24
Популярные аккорды
   Аккорды песен Башкирия (3666)
   Аккорды песен 5nizza - Пятница (2845)
   Аккорды песен Я у девушка юный бил ночью в гостях... (2236)
   Аккорды песен Вот идет караван... (2191)
   Аккорды песен Лесоповал - Я куплю тебе дом (Белый лебедь) (2091)
   Аккорды песен Дворовые песни - Казахи (1929)
   Аккорды песен Тема из к/ф "Джентльмены удачи" (1690)
   Аккорды песен Дoждь cтyчит пo кpышaм, cлoвнo мнe нaзлo (1649)
   Аккорды песен Агата Кристи - Как на войне (1558)
   Аккорды песен Кабриолет - Цепи (1527)
Поиск
Статистика

Добавлено аккордов: 2102



Аккорды к песням нашим


0-9 - A - B - C - D - E - F - G - H - I - J - K - L - M - N - O - P - Q - R - S - T - U - V - W - X - Y - Z
А - Б - В - Г - Д - Е - Ж - З - И - К - Л - М - Н - О - П - Р - С - Т - У - Ф - Х - Ц - Ч - Ш - Щ - Э - Ю - Я

Аккорд песни Дельфин - Она не любит
Просмотров: 260
Дата добавления: 09.06.2010
Категория: Д
em|-----------
|-----------
|-----------
|-----2-----
|-----2-----
|-----------
Emanov 2:5059/23.4)

am|--------
|---1----
|-----2--
|-----2--
|--------
|--------Am (C)
am|--------
|---1----
|-----2--
|-----2--
|--------
|--------Am(5)
gm|-----3---
|-----3---
|---------
|---------
|-1-------
|-----3---
Gm

e|-------5-5-5----------5-5-5-
H|-------5-5-5----------5-5-5-
G|-------5-5-5----------5-5-5-
D|-----7-7-7-7------7---7-7-7-
A|---7------------7---7-------
E|-5------------5-------------

Это мое последнее слово
D|-----0-----0---
A|---5---5-5---5-
E|-3-------------

Последний собачий бой
Riff1:
A|-3-3--3----3-3--3---7-
E|--------5---------5---

Riff2
A|-2-2--2----2-2--2----2-2--2---5-
E|--------3---------3---------3---
Дельфин - Она не любит аккорд песни