Понедельник, 30.11.2020, 23:22
Популярные аккорды
   Аккорды песен Башкирия (3693)
   Аккорды песен 5nizza - Пятница (2889)
   Аккорды песен Я у девушка юный бил ночью в гостях... (2283)
   Аккорды песен Вот идет караван... (2221)
   Аккорды песен Лесоповал - Я куплю тебе дом (Белый лебедь) (2117)
   Аккорды песен Дворовые песни - Казахи (1961)
   Аккорды песен Тема из к/ф "Джентльмены удачи" (1725)
   Аккорды песен Дoждь cтyчит пo кpышaм, cлoвнo мнe нaзлo (1673)
   Аккорды песен Агата Кристи - Как на войне (1584)
   Аккорды песен Кабриолет - Цепи (1556)
Поиск
Статистика

Добавлено аккордов: 2102



Аккорды к песням нашим


0-9 - A - B - C - D - E - F - G - H - I - J - K - L - M - N - O - P - Q - R - S - T - U - V - W - X - Y - Z
А - Б - В - Г - Д - Е - Ж - З - И - К - Л - М - Н - О - П - Р - С - Т - У - Ф - Х - Ц - Ч - Ш - Щ - Э - Ю - Я

Аккорд песни Дельфин - Прозрачная
Просмотров: 326
Дата добавления: 09.06.2010
Категория: Д
Intro:

h|-2--------
|-2--4-----
|-2--4-----
|-2--4-----
|-2--------
|-2--------H g
|------3---
|----------
|----------
|----------
|----2-----
|------3---G a|----------
|---2------
|---2------
|---2------
|----------
|----------A F#
(6стр: --7--3--5--2--)

e|------------------------------5-7~-----------------------------|
B|----------3-5-------------3-5---------------3~---------3-5-10~-|
G|------2-4-----9~------2-4---------------2-4--------2-4---------|
D|----4---------------4-----------------4----------4-------------|
A|--2---------------2-----------------2----------2---------------|
E|---------------------------------------------------------------|

hm|--2-------
|--2-3-----
|--2---4---
|--2---4---
|--2-------
|--2-------Hm
Она делает меня прозрачным,
g
|------3---
|----------
|----------
|----------
|----2-----
|------3---G
Таким же, как была сама
a|----------
|---2------
|---2------
|---2------
|----------
|----------A
Она делает меня прозрачным,
F#
Моими красками рисуя себя
Она берет из рук моих вишни
И давит ...(?) сок
Чтобы кто-то другой, кто-то лишний
В темноте различить их смог
Она делает меня прозрачным...
Она делает меня прозрачным...

Она делает меня прозрачным,
Растворяясь в моих глазах,
Воруя частички света
В моих случайных слезах
Она делает меня прозрачным,
Таким же, как дождь октября
И я капаю тихо и мрачно
По яркой листве шелестя
Она делает меня прозрачным...
Она делает меня прозрачным...

Она смотрит в меня со скукой,
Как будто в пустое окно,
Упиваясь прозрачным звуком,
Прозрачным лишь для нее...
Дельфин - Прозрачная аккорд песни