Вторник, 27.10.2020, 15:58
Популярные аккорды
   Аккорды песен Башкирия (3680)
   Аккорды песен 5nizza - Пятница (2872)
   Аккорды песен Я у девушка юный бил ночью в гостях... (2260)
   Аккорды песен Вот идет караван... (2207)
   Аккорды песен Лесоповал - Я куплю тебе дом (Белый лебедь) (2107)
   Аккорды песен Дворовые песни - Казахи (1946)
   Аккорды песен Тема из к/ф "Джентльмены удачи" (1708)
   Аккорды песен Дoждь cтyчит пo кpышaм, cлoвнo мнe нaзлo (1660)
   Аккорды песен Агата Кристи - Как на войне (1574)
   Аккорды песен Кабриолет - Цепи (1544)
Поиск
Статистика

Добавлено аккордов: 2102



Аккорды к песням нашим


0-9 - A - B - C - D - E - F - G - H - I - J - K - L - M - N - O - P - Q - R - S - T - U - V - W - X - Y - Z
А - Б - В - Г - Д - Е - Ж - З - И - К - Л - М - Н - О - П - Р - С - Т - У - Ф - Х - Ц - Ч - Ш - Щ - Э - Ю - Я

Аккорд песни Дельфин - Резьба
Просмотров: 300
Дата добавления: 09.06.2010
Категория: Д
вступление: D|---5---5---5-- , т.е. просто бряцает квинту С
A|-3---3---3----

(голос) Дамы и господа! Мишины дельфины...

вступление2: C5 a5|-----------
|-----------
|-----------
|-----7-----
|-----7-----
|--5--------A5 G5 a5|-----------
|-----------
|-----------
|-----7-----
|-----7-----
|--5--------A5 (x2)

a5|-----------
|-----------
|-----------
|-----7-----
|-----7-----
|--5--------A5(am|--------
|---1----
|-----2--
|-----2--
|--------
|--------Am) G5(G)
Он идет уже двадцать пять лет,
Он идет просто так, в никуда
Hе имея вопроса, он не ищет ответ,
H5(H) a5|-----------
|-----------
|-----------
|-----7-----
|-----7-----
|--5--------A5 G5
Если ветер - то снег, если дождь - то вода

Проигрыш: C5 a5|-----------
|-----------
|-----------
|-----7-----
|-----7-----
|--5--------A5 G5 a5|-----------
|-----------
|-----------
|-----7-----
|-----7-----
|--5--------A5 a5|-----------
|-----------
|-----------
|-----7-----
|-----7-----
|--5--------A5 G5 H5 a5|-----------
|-----------
|-----------
|-----7-----
|-----7-----
|--5--------A5

Он идет от себя, возвращаясь к себе,
Как будто куда-то спеша
И все его сны с интересом к весне
Спрессованы в грамм гашишА
Дельфин - Резьба аккорд песни