Понедельник, 30.11.2020, 19:37
Популярные аккорды
   Аккорды песен Башкирия (3693)
   Аккорды песен 5nizza - Пятница (2889)
   Аккорды песен Я у девушка юный бил ночью в гостях... (2283)
   Аккорды песен Вот идет караван... (2221)
   Аккорды песен Лесоповал - Я куплю тебе дом (Белый лебедь) (2117)
   Аккорды песен Дворовые песни - Казахи (1961)
   Аккорды песен Тема из к/ф "Джентльмены удачи" (1724)
   Аккорды песен Дoждь cтyчит пo кpышaм, cлoвнo мнe нaзлo (1673)
   Аккорды песен Агата Кристи - Как на войне (1584)
   Аккорды песен Кабриолет - Цепи (1556)
Поиск
Статистика

Добавлено аккордов: 2102



Аккорды к песням нашим


0-9 - A - B - C - D - E - F - G - H - I - J - K - L - M - N - O - P - Q - R - S - T - U - V - W - X - Y - Z
А - Б - В - Г - Д - Е - Ж - З - И - К - Л - М - Н - О - П - Р - С - Т - У - Ф - Х - Ц - Ч - Ш - Щ - Э - Ю - Я

Аккорд песни Дидюля Валерий - Айседора
Просмотров: 227
Дата добавления: 09.06.2010
Категория: Д
Author/Artist: DiDula
Title: Aisedora
Album: Flamenco
Transcribed by: Nemitullaev Merlin
em|-----------
|-----------
|-----------
|-----2-----
|-----2-----
|-----------
Email: maricone@mail.ru
2:5085/34.17@Fidonet


Интро из клипа: После 3 такта обыгрываем аккорды gm|-----3---
|-----3---
|---------
|---------
|-1-------
|-----3---
Gm-F-cm|--3------
|--3-4----
|--3---5--
|--3---5--
|--3------
|--3------
Cm постукивая
по деке гитары то большим пальцем(над 6 струной), то остальными 4 под 1 струной.

gm|-----3---
|-----3---
|---------
|---------
|-1-------
|-----3---
Gm f|-1------------
|-1------------
|-1--2---------
|-1-----3------
|-1-----3------
|-1-----------F


|-----------3------------------------|-----------1--------------------------|--
|---------3---3------------3-4-5-4-3-|---------1---1----------1-3-4-3-1-----|--
|-------3-------3--------------------|-------2-------2----------------------|--
|-----5-----------5------------------|-----3-----------3--------------------|--
|---5---------------5----------------|---3---------------3------------------|--
|-3-------------------3-3------------|-1-------------------1----------------|--

2 раза
------------------------------| |-----------------------|--------------------
-----4------4-----------------| |---3--4----3--1---3-4-3|--------------------
---3---3--3-------------------| |-0-------0------0------|--------------------
-1-------1--------------------| |-----------------------|--------------------
-----------------0h1-1h3-1-0--| |-----------------------|--------------------
-----------------------------3| |-----------------------|--------------------

2 раза 3 такта 2 раза 3 такта
-------------------|-------------|-------------|-------------------|----------
-3-3---3-4-6-4-3-1-|-1-3-4-3-1---|-------------|-------------------|----------
-------------------|-----------3-|-2h3-2-------|-------------------|----------
-------------------|-------------|-------3-35-|-------------------|----------
-------------------|-------------|-------------|-5-5---5-6-8-6-5-3-|----------
-------------------|-------------|-------------|-------------------|----------

gm|-----3---
|-----3---
|---------
|---------
|-1-------
|-----3---
Gm
-------------|---------------|------------3|-5-6-8-6-5-5|--------
-------------|---------------|----------3--|------------|--------
-------------|---------------|--------3----|------------|--------
-------------|---------------|------5------|------------|--------
-3-5-6-5-3-1-|-0h1-13-1-0---|----5--------|------------|--------
-------------|-------------3-|--3----------|------------|--------

2 раза Так сыграть в конце
---------|---------------------| |------------|-------------|
-3-3-3-3-|---3-4---3--1---3-4-3| |------------|-------------|
---------|-0-----0------0------| |------------|-------------|
---------|---------------------| |------------|-------------|
---------|---------------------| |-0h1-0------|-1-0----1-0--|
---------|---------------------| |-------1-13|-----3------3|

Все исправления прошу присылать мне мылом на maricone@mail.ru
либо на скромный адресок в Фидошке: 2:5085/34.17

Adios, amigos!!!
Дидюля Валерий - Айседора аккорд песни