Вторник, 29.09.2020, 15:00
Популярные аккорды
   Аккорды песен Башкирия (3666)
   Аккорды песен 5nizza - Пятница (2846)
   Аккорды песен Я у девушка юный бил ночью в гостях... (2236)
   Аккорды песен Вот идет караван... (2191)
   Аккорды песен Лесоповал - Я куплю тебе дом (Белый лебедь) (2091)
   Аккорды песен Дворовые песни - Казахи (1929)
   Аккорды песен Тема из к/ф "Джентльмены удачи" (1691)
   Аккорды песен Дoждь cтyчит пo кpышaм, cлoвнo мнe нaзлo (1649)
   Аккорды песен Агата Кристи - Как на войне (1558)
   Аккорды песен Кабриолет - Цепи (1527)
Поиск
Статистика

Добавлено аккордов: 2102



Аккорды к песням нашим


0-9 - A - B - C - D - E - F - G - H - I - J - K - L - M - N - O - P - Q - R - S - T - U - V - W - X - Y - Z
А - Б - В - Г - Д - Е - Ж - З - И - К - Л - М - Н - О - П - Р - С - Т - У - Ф - Х - Ц - Ч - Ш - Щ - Э - Ю - Я

Аккорд песни Э.С.Т. - Дикая - Пьяная
Просмотров: 354
Дата добавления: 09.06.2010
Категория: Э
am|--------
|---1----
|-----2--
|-----2--
|--------
|--------Am, G, F, e|------------
|------------
|---1--------
|------2-----
|------2-----
|------------E



am|--------
|---1----
|-----2--
|-----2--
|--------
|--------Am g
|------3---
|----------
|----------
|----------
|----2-----
|------3---G f|-1------------
|-1------------
|-1--2---------
|-1-----3------
|-1-----3------
|-1-----------F e|------------
|------------
|---1--------
|------2-----
|------2-----
|------------E

Тысячи миль греха,

am|--------
|---1----
|-----2--
|-----2--
|--------
|--------Am g
|------3---
|----------
|----------
|----------
|----2-----
|------3---G f|-1------------
|-1------------
|-1--2---------
|-1-----3------
|-1-----3------
|-1-----------F e|------------
|------------
|---1--------
|------2-----
|------2-----
|------------E

Тысячи миль грез.

am|--------
|---1----
|-----2--
|-----2--
|--------
|--------Am g
|------3---
|----------
|----------
|----------
|----2-----
|------3---G f|-1------------
|-1------------
|-1--2---------
|-1-----3------
|-1-----3------
|-1-----------F e|------------
|------------
|---1--------
|------2-----
|------2-----
|------------E

Кровь, моря и снега.

am|--------
|---1----
|-----2--
|-----2--
|--------
|--------Am g
|------3---
|----------
|----------
|----------
|----2-----
|------3---G f|-1------------
|-1------------
|-1--2---------
|-1-----3------
|-1-----3------
|-1-----------F e|------------
|------------
|---1--------
|------2-----
|------2-----
|------------E

Три океана слез.

Злая, слепая Русь,

Что мне делать с тобой.

Где живет твоя грусть,

Где умирает покой.



Пр:



am|--------
|---1----
|-----2--
|-----2--
|--------
|--------Am f|-1------------
|-1------------
|-1--2---------
|-1-----3------
|-1-----3------
|-1-----------F am|--------
|---1----
|-----2--
|-----2--
|--------
|--------Am f|-1------------
|-1------------
|-1--2---------
|-1-----3------
|-1-----3------
|-1-----------F

Дикая, дикая и пьяная...

am|--------
|---1----
|-----2--
|-----2--
|--------
|--------Am f|-1------------
|-1------------
|-1--2---------
|-1-----3------
|-1-----3------
|-1-----------F am|--------
|---1----
|-----2--
|-----2--
|--------
|--------Am f|-1------------
|-1------------
|-1--2---------
|-1-----3------
|-1-----3------
|-1-----------F

Дикая... Чем ты мне люба?



Ты плачешь в золотых церквях,

Смеешься в простом кабаке.

Чаша дрожит в руках.

Что за тайна на дне?

Кто-то смешно пошутил,

И спутал Восток и Запад.

Я столдькл грешил, и я столько забыл,

Что заслужил твой ад



Пр.
Э.С.Т. - Дикая - Пьяная аккорд песни