Суббота, 24.10.2020, 05:54
Популярные аккорды
   Аккорды песен Башкирия (3680)
   Аккорды песен 5nizza - Пятница (2869)
   Аккорды песен Я у девушка юный бил ночью в гостях... (2257)
   Аккорды песен Вот идет караван... (2206)
   Аккорды песен Лесоповал - Я куплю тебе дом (Белый лебедь) (2107)
   Аккорды песен Дворовые песни - Казахи (1945)
   Аккорды песен Тема из к/ф "Джентльмены удачи" (1706)
   Аккорды песен Дoждь cтyчит пo кpышaм, cлoвнo мнe нaзлo (1660)
   Аккорды песен Агата Кристи - Как на войне (1572)
   Аккорды песен Кабриолет - Цепи (1543)
Поиск
Статистика

Добавлено аккордов: 2102



Аккорды к песням нашим


0-9 - A - B - C - D - E - F - G - H - I - J - K - L - M - N - O - P - Q - R - S - T - U - V - W - X - Y - Z
А - Б - В - Г - Д - Е - Ж - З - И - К - Л - М - Н - О - П - Р - С - Т - У - Ф - Х - Ц - Ч - Ш - Щ - Э - Ю - Я

Аккорд песни Э.С.Т. - Проклятая Алиса
Просмотров: 417
Дата добавления: 09.06.2010
Категория: Э
c#|--1--------
|--1-2------
|--1--------
|--1---3----
|--1-----4--
|--1--------
C#m a|----------
|---2------
|---2------
|---2------
|----------
|----------A c#|--1--------
|--1-2------
|--1--------
|--1---3----
|--1-----4--
|--1--------
C#m a|----------
|---2------
|---2------
|---2------
|----------
|----------A



c#|--1--------
|--1-2------
|--1--------
|--1---3----
|--1-----4--
|--1--------
C#m a|----------
|---2------
|---2------
|---2------
|----------
|----------A

Ты так легко вошла

c#|--1--------
|--1-2------
|--1--------
|--1---3----
|--1-----4--
|--1--------
C#m a|----------
|---2------
|---2------
|---2------
|----------
|----------A

В наш тесный теплый круг

c#|--1--------
|--1-2------
|--1--------
|--1---3----
|--1-----4--
|--1--------
C#m a|----------
|---2------
|---2------
|---2------
|----------
|----------A

Ха, ты не ушла

c#|--1--------
|--1-2------
|--1--------
|--1---3----
|--1-----4--
|--1--------
C#m a|----------
|---2------
|---2------
|---2------
|----------
|----------A

Из наших цепких рук



Пр:



D f|-1------------
|-1------------
|-1--2---------
|-1-----3------
|-1-----3------
|-1-----------F

Теперь нам больно за себя

C e|------------
|------------
|---1--------
|------2-----
|------2-----
|------------E

И неприятно писать

D f|-1------------
|-1------------
|-1--2---------
|-1-----3------
|-1-----3------
|-1-----------F

Мы не забудем никогда

C e|------------
|------------
|---1--------
|------2-----
|------2-----
|------------E

Тебя, проклятая Алиса



Ты сообщала нам

Какую-то фигню

Ты отдавалась нам

По 300 раз на дню



Пр.



Ты унесла с собой журнал

500 рублей и свитер

А напоследок я узнал

Тебя ведь звали Рита



Теперь нам больно за себя

И неприятно писать

Мы не забудем никогда

Тебя, проклятая Алиса

Ты уронила наж престиж

Известных гитаристов

Мы не забудем никогда

Тебя, ПРОКЛЯТАЯ АЛИСА

Э.С.Т. - Проклятая Алиса аккорд песни