Среда, 21.08.2019, 01:32
Новые аккорды
Популярные аккорды
   Аккорды песен Башкирия (3443)
   Аккорды песен 5nizza - Пятница (2570)
   Аккорды песен Вот идет караван... (1956)
   Аккорды песен Я у девушка юный бил ночью в гостях... (1897)
   Аккорды песен Лесоповал - Я куплю тебе дом (Белый лебедь) (1894)
   Аккорды песен Дворовые песни - Казахи (1724)
   Аккорды песен Тема из к/ф "Джентльмены удачи" (1471)
   Аккорды песен Дoждь cтyчит пo кpышaм, cлoвнo мнe нaзлo (1463)
   Аккорды песен Агата Кристи - Как на войне (1386)
   Аккорды песен Кабриолет - Цепи (1308)
Поиск
Статистика

Добавлено аккордов: 2047



Аккорды к песням нашим


0-9 - A - B - C - D - E - F - G - H - I - J - K - L - M - N - O - P - Q - R - S - T - U - V - W - X - Y - Z
А - Б - В - Г - Д - Е - Ж - З - И - К - Л - М - Н - О - П - Р - С - Т - У - Ф - Х - Ц - Ч - Ш - Щ - Э - Ю - Я

Аккорд песни F.P.G. - Больны!
Просмотров: 848
Дата добавления: 09.06.2010
Категория: F
c#|--1--------
|--1-2------
|--1--------
|--1---3----
|--1-----4--
|--1--------
C#5 E5 a5|-----------
|-----------
|-----------
|-----7-----
|-----7-----
|--5--------A5 E5 D#5 c#|--1--------
|--1-2------
|--1--------
|--1---3----
|--1-----4--
|--1--------
C#5
Зимою снег, весной говно давлю я тяжестью подошв
E5 a5|-----------
|-----------
|-----------
|-----7-----
|-----7-----
|--5--------A5 E5 D#5 c#|--1--------
|--1-2------
|--1--------
|--1---3----
|--1-----4--
|--1--------
C#5
Моим ботинкам наплевать кого, когда и где давить
E5 a5|-----------
|-----------
|-----------
|-----7-----
|-----7-----
|--5--------A5 E5 D#5 c#|--1--------
|--1-2------
|--1--------
|--1---3----
|--1-----4--
|--1--------
C#5
Ведь я иду своим путем хоть это часто не легко
E5 a5|-----------
|-----------
|-----------
|-----7-----
|-----7-----
|--5--------A5 E5 D#5 a5|-----------
|-----------
|-----------
|-----7-----
|-----7-----
|--5--------A5
По жизни чье-нибудь ебло пытается остановить -
G#5 c#|--1--------
|--1-2------
|--1--------
|--1---3----
|--1-----4--
|--1--------
C#5
Мои ботинки для прогулок
a5|-----------
|-----------
|-----------
|-----7-----
|-----7-----
|--5--------A5 G#5 c#|--1--------
|--1-2------
|--1--------
|--1---3----
|--1-----4--
|--1--------
C#5
Они удобны при ходьбе
a5|-----------
|-----------
|-----------
|-----7-----
|-----7-----
|--5--------A5 G#5 c#|--1--------
|--1-2------
|--1--------
|--1---3----
|--1-----4--
|--1--------
C#5
Когда-нибудь наступит время
a5|-----------
|-----------
|-----------
|-----7-----
|-----7-----
|--5--------A5 G#5 c#|--1--------
|--1-2------
|--1--------
|--1---3----
|--1-----4--
|--1--------
C#5
Они пройдут и по тебе
Ловушки на моем пути: капканы, ямы, тупики
Соблазны, цепи, западни, замки, законы, знаки «СТОП»
Все это долго обходить - мне может жизни не хватить
Шагая часто напрямик, легко находят мне врагов -
Мои ботинки для прогулок
Они удобны при ходьбе
Когда-нибудь наступит время
Они пройдут и по тебе
Цветы, блевотина, земля, моя засохшая сопля,
Зеленой пылью конопля - въедается в мои шнурки
К ботинкам липнет вся хуйня, но всем назло они блестят
Ведь танкам не помеха грязь, которой много на пути -
Моих ботинок для прогулок
Таких удобных при ходьбе
Когда-нибудь наступит время
Они пройдут и по тебе
Смотреть ты можешь свысока на них - пока ты на ногах
Ты можешь им кидать слова, мне наплевать - слова говно
Я не желаю тебе зла и зла, таким как ты козлам
Я не желаю, но бывает так, что причиняют зло
Мои ботинки для прогулок
Они удобны при ходьбе
Когда наступит ТВОЁ время
Они пройдут и по тебе
F.P.G. - Больны! аккорд песни