Вторник, 22.09.2020, 14:39
Популярные аккорды
   Аккорды песен Башкирия (3661)
   Аккорды песен 5nizza - Пятница (2844)
   Аккорды песен Я у девушка юный бил ночью в гостях... (2232)
   Аккорды песен Вот идет караван... (2186)
   Аккорды песен Лесоповал - Я куплю тебе дом (Белый лебедь) (2086)
   Аккорды песен Дворовые песни - Казахи (1923)
   Аккорды песен Тема из к/ф "Джентльмены удачи" (1685)
   Аккорды песен Дoждь cтyчит пo кpышaм, cлoвнo мнe нaзлo (1643)
   Аккорды песен Агата Кристи - Как на войне (1556)
   Аккорды песен Кабриолет - Цепи (1521)
Поиск
Статистика

Добавлено аккордов: 2102



Аккорды к песням нашим


0-9 - A - B - C - D - E - F - G - H - I - J - K - L - M - N - O - P - Q - R - S - T - U - V - W - X - Y - Z
А - Б - В - Г - Д - Е - Ж - З - И - К - Л - М - Н - О - П - Р - С - Т - У - Ф - Х - Ц - Ч - Ш - Щ - Э - Ю - Я

Аккорд песни F.P.G. - Бухать!
Просмотров: 382
Дата добавления: 09.06.2010
Категория: F
C f|-1------------
|-1------------
|-1--2---------
|-1-----3------
|-1-----3------
|-1-----------F c|----------
|---1------
|----------
|-----2----
|-------3--
|-------3--C g
|------3---
|----------
|----------
|----------
|----2-----
|------3---G c|----------
|---1------
|----------
|-----2----
|-------3--
|-------3--C
Мой друг скинхед встает с утра и начинает день с того,
f|-1------------
|-1------------
|-1--2---------
|-1-----3------
|-1-----3------
|-1-----------F c|----------
|---1------
|----------
|-----2----
|-------3--
|-------3--C g
|------3---
|----------
|----------
|----------
|----2-----
|------3---G c|----------
|---1------
|----------
|-----2----
|-------3--
|-------3--C
Что подыхая с бодуна, кричит в раскрытое окно:
f|-1------------
|-1------------
|-1--2---------
|-1-----3------
|-1-----3------
|-1-----------F g
|------3---
|----------
|----------
|----------
|----2-----
|------3---G f|-1------------
|-1------------
|-1--2---------
|-1-----3------
|-1-----3------
|-1-----------F c|----------
|---1------
|----------
|-----2----
|-------3--
|-------3--C
Давай! Бей быков! Бей их всех, не оставляй зубов им.
f|-1------------
|-1------------
|-1--2---------
|-1-----3------
|-1-----3------
|-1-----------F g
|------3---
|----------
|----------
|----------
|----2-----
|------3---G f|-1------------
|-1------------
|-1--2---------
|-1-----3------
|-1-----3------
|-1-----------F c|----------
|---1------
|----------
|-----2----
|-------3--
|-------3--C
Ой-ой! Бей быков! Бей ботинком их промеж рогов!

Мой друг скинхед надев штаны, на день уже составил план:
Зайти в пивняк, попить пивка и на работу опоздать,
Купить на хайкинги шнурки и Cockney Rejects записать.
Соседу дать пизды. И, это делая, орать:

Давай! Бей быков! Бей их всех, не оставляй зубов им.
Ой-ой! Бей быков! Бей ботинком их промеж рогов!

Мой друг скинхед закончив день, с работы тащится домой.
Меня завидя вдалеке, он крикнет громко: Ой-ой-ой!
Он не фашист, он патриот, он не подонок, но свинья,
Он защищает свой народ, и это радует меня.

Давай! Бей быков! Бей их всех, не оставляй зубов им.
Ой-ой! Бей быков! Бей ботинком их промеж рогов!

И вот когда день сменит ночь,
Мой друг непротив покурить.
И выпить тоже он не прочь, прохожим рожу налупить.
Устроить панковский дебош, и деньги все спустив в пизду,
Свалиться пьяным под забор и бешено орать в бреду:

Давай! Бей быков! Бей их всех, не оставляй зубов им.
Ой-ой! Бей быков! Бей ботинком их промеж рогов!
Давай! Бей быков! Бей их всех, не оставляй зубов им.
Ой-ой! Бей быков! Бей ботинком их промеж рогов!
F.P.G. - Бухать! аккорд песни