Воскресенье, 17.01.2021, 11:33
Популярные аккорды
   Аккорды песен Башкирия (3715)
   Аккорды песен 5nizza - Пятница (2917)
   Аккорды песен Я у девушка юный бил ночью в гостях... (2323)
   Аккорды песен Вот идет караван... (2245)
   Аккорды песен Лесоповал - Я куплю тебе дом (Белый лебедь) (2140)
   Аккорды песен Дворовые песни - Казахи (1988)
   Аккорды песен Тема из к/ф "Джентльмены удачи" (1747)
   Аккорды песен Дoждь cтyчит пo кpышaм, cлoвнo мнe нaзлo (1693)
   Аккорды песен Агата Кристи - Как на войне (1608)
   Аккорды песен Песня из к/ф "Золото Маккены" (1589)
Поиск
Статистика

Добавлено аккордов: 2102



Аккорды к песням нашим


0-9 - A - B - C - D - E - F - G - H - I - J - K - L - M - N - O - P - Q - R - S - T - U - V - W - X - Y - Z
А - Б - В - Г - Д - Е - Ж - З - И - К - Л - М - Н - О - П - Р - С - Т - У - Ф - Х - Ц - Ч - Ш - Щ - Э - Ю - Я

Аккорд песни Голубые Береты - Афганский Ветер
Просмотров: 327
Дата добавления: 09.06.2010
Категория: Г
 Проигрыш перебором: 5-3-2-3-1-3-2-3 f|-1------------
|-1------------
|-1--2---------
|-1-----3------
|-1-----3------
|-1-----------F g
|------3---
|----------
|----------
|----------
|----2-----
|------3---G am|--------
|---1----
|-----2--
|-----2--
|--------
|--------Am - 2 раза



f|-1------------
|-1------------
|-1--2---------
|-1-----3------
|-1-----3------
|-1-----------F g
|------3---
|----------
|----------
|----------
|----2-----
|------3---G am|--------
|---1----
|-----2--
|-----2--
|--------
|--------Am

Вертолёты поднимались в небо,



Унося домой от нас приветы,



И с тревогой в след им смотри долго,



Долетела только б наша почта.



Долетела только б да Кабула,



Не нарвалась только бы на духов.



Пусть хранит вас Бог и ваши крылья,



Вот такая есть у вас работа.





Припев:

f|-1------------
|-1------------
|-1--2---------
|-1-----3------
|-1-----3------
|-1-----------F g
|------3---
|----------
|----------
|----------
|----2-----
|------3---G c|----------
|---1------
|----------
|-----2----
|-------3--
|-------3--C am|--------
|---1----
|-----2--
|-----2--
|--------
|--------Am

Афганский ветер, и будь ты им счастливым !

f|-1------------
|-1------------
|-1--2---------
|-1-----3------
|-1-----3------
|-1-----------F g
|------3---
|----------
|----------
|----------
|----2-----
|------3---G c|----------
|---1------
|----------
|-----2----
|-------3--
|-------3--C am|--------
|---1----
|-----2--
|-----2--
|--------
|--------Am

Афганский ветер, пусть вам будет мирным !

f|-1------------
|-1------------
|-1--2---------
|-1-----3------
|-1-----3------
|-1-----------F g
|------3---
|----------
|----------
|----------
|----2-----
|------3---G c|----------
|---1------
|----------
|-----2----
|-------3--
|-------3--C

Афганский ветер, и будь ты им попутным!

f|-1------------
|-1------------
|-1--2---------
|-1-----3------
|-1-----3------
|-1-----------F g
|------3---
|----------
|----------
|----------
|----2-----
|------3---G am|--------
|---1----
|-----2--
|-----2--
|--------
|--------Am

Афганский ветер, ветром надежд!





Ну а завтра новые полёты



Ждут ребята воду и патроны



Ждут подмогу если слишком трудно



Вы успеете ведь без вас так худо



А назад лететь с тяжёлым грузом



Раненых везти нас и убитых



Пусть хранит вас Бог и ваши крылья



Вот такая есть у вас работа



Припев: тот же
Голубые Береты - Афганский Ветер аккорд песни