Суббота, 24.10.2020, 00:47
Популярные аккорды
   Аккорды песен Башкирия (3680)
   Аккорды песен 5nizza - Пятница (2868)
   Аккорды песен Я у девушка юный бил ночью в гостях... (2257)
   Аккорды песен Вот идет караван... (2206)
   Аккорды песен Лесоповал - Я куплю тебе дом (Белый лебедь) (2107)
   Аккорды песен Дворовые песни - Казахи (1945)
   Аккорды песен Тема из к/ф "Джентльмены удачи" (1706)
   Аккорды песен Дoждь cтyчит пo кpышaм, cлoвнo мнe нaзлo (1660)
   Аккорды песен Агата Кристи - Как на войне (1572)
   Аккорды песен Кабриолет - Цепи (1543)
Поиск
Статистика

Добавлено аккордов: 2102



Аккорды к песням нашим


0-9 - A - B - C - D - E - F - G - H - I - J - K - L - M - N - O - P - Q - R - S - T - U - V - W - X - Y - Z
А - Б - В - Г - Д - Е - Ж - З - И - К - Л - М - Н - О - П - Р - С - Т - У - Ф - Х - Ц - Ч - Ш - Щ - Э - Ю - Я

Аккорд песни Голубые Береты - Где-то Рядом Они
Просмотров: 341
Дата добавления: 09.06.2010
Категория: Г
Подбор: Евгений Францен evgenij@t-online.de 



Голубые Береты - ГДЕ - ТО РЯДОМ ОНИ.



Перебор: (5-3-2-3-1-3-2-3)



em|-----------
|-----------
|-----------
|-----2-----
|-----2-----
|-----------
Em am|--------
|---1----
|-----2--
|-----2--
|--------
|--------Am

Словно облака или птицы,

d|---2------
|-----3----
|---2------
|----------
|----------
|----------D h7|---2-----
|---------
|---2-----
|-1-------
|---------
|---2-----H7

Улетели, став небылицей,

c|----------
|---1------
|----------
|-----2----
|-------3--
|-------3--C am|--------
|---1----
|-----2--
|-----2--
|--------
|--------Am

Улетели, нас не позвали,

h7|---2-----
|---------
|---2-----
|-1-------
|---------
|---2-----H7 em|-----------
|-----------
|-----------
|-----2-----
|-----2-----
|-----------
Em

Только как – то громко кричали.



Проигрыш боем: em|-----------
|-----------
|-----------
|-----2-----
|-----2-----
|-----------
Em



Дальше боем: em|-----------
|-----------
|-----------
|-----2-----
|-----2-----
|-----------
Em

Лягут в стенды музеев медали,

em|-----------
|-----------
|-----------
|-----2-----
|-----2-----
|-----------
Em

Чтобы мы о тех бойцах вспоминали,

am|--------
|---1----
|-----2--
|-----2--
|--------
|--------Am

Будут плакать над могилами мамы,

h7|---2-----
|---------
|---2-----
|-1-------
|---------
|---2-----H7 em|-----------
|-----------
|-----------
|-----2-----
|-----2-----
|-----------
Em

Заживут у всех со временем раны.

em|-----------
|-----------
|-----------
|-----2-----
|-----2-----
|-----------
Em

Только где – то там, в аулах Кавказа,

em|-----------
|-----------
|-----------
|-----2-----
|-----2-----
|-----------
Em

Будут жить, как легенды, рассказы,

am|--------
|---1----
|-----2--
|-----2--
|--------
|--------Am

О солдатах, что дрались жестоко,

h7|---2-----
|---------
|---2-----
|-1-------
|---------
|---2-----H7 em|-----------
|-----------
|-----------
|-----2-----
|-----2-----
|-----------
Em

Как ушла в закат десантная рота.



Припев: am|--------
|---1----
|-----2--
|-----2--
|--------
|--------Am d|---2------
|-----3----
|---2------
|----------
|----------
|----------D

А на небе их встретят святые отцы

g
|------3---
|----------
|----------
|----------
|----2-----
|------3---G c|----------
|---1------
|----------
|-----2----
|-------3--
|-------3--C

И проводят туда., где героям – покой,

am|--------
|---1----
|-----2--
|-----2--
|--------
|--------Am d|---2------
|-----3----
|---2------
|----------
|----------
|----------D

Там собрались все вместе лихие бойцы,

h7|---2-----
|---------
|---2-----
|-1-------
|---------
|---2-----H7

Кто во все времена шел за Родину в бой…

am|--------
|---1----
|-----2--
|-----2--
|--------
|--------Am d|---2------
|-----3----
|---2------
|----------
|----------
|----------D

Вспоминают высотки под Вязьмой, Орлом,

g
|------3---
|----------
|----------
|----------
|----2-----
|------3---G c|----------
|---1------
|----------
|-----2----
|-------3--
|-------3--C

Под Кабулом засады и в Грозном посты,

am|--------
|---1----
|-----2--
|-----2--
|--------
|--------Am em|-----------
|-----------
|-----------
|-----2-----
|-----2-----
|-----------
Em

И когда над землей блещут грозы с дождем,

am|--------
|---1----
|-----2--
|-----2--
|--------
|--------Am h7|---2-----
|---------
|---2-----
|-1-------
|---------
|---2-----H7 em|-----------
|-----------
|-----------
|-----2-----
|-----2-----
|-----------
Em

Где – то рядом они, с нами рядом они…



Застонала тишина болью,

В красном можно утонуть бое,

И деревья от обиды плачут –

Пять минут не проживет мальчик!

Пять минут – т больше нет срока,

И ушла на небеса рота.

Не отдавши никому славу,

Только жаль, что прожила мало…



Припев.



Вспоминают высотки под Вязьмой, Орлом,

Под Кабулом засады и в Грозном посты,

И когда над землей блещут грозы с дождем,

Где – то рядом они, с нами рядом они…
Голубые Береты - Где-то Рядом Они аккорд песни