Суббота, 24.10.2020, 23:08
Популярные аккорды
   Аккорды песен Башкирия (3680)
   Аккорды песен 5nizza - Пятница (2871)
   Аккорды песен Я у девушка юный бил ночью в гостях... (2259)
   Аккорды песен Вот идет караван... (2206)
   Аккорды песен Лесоповал - Я куплю тебе дом (Белый лебедь) (2107)
   Аккорды песен Дворовые песни - Казахи (1945)
   Аккорды песен Тема из к/ф "Джентльмены удачи" (1707)
   Аккорды песен Дoждь cтyчит пo кpышaм, cлoвнo мнe нaзлo (1660)
   Аккорды песен Агата Кристи - Как на войне (1573)
   Аккорды песен Кабриолет - Цепи (1543)
Поиск
Статистика

Добавлено аккордов: 2102



Аккорды к песням нашим


0-9 - A - B - C - D - E - F - G - H - I - J - K - L - M - N - O - P - Q - R - S - T - U - V - W - X - Y - Z
А - Б - В - Г - Д - Е - Ж - З - И - К - Л - М - Н - О - П - Р - С - Т - У - Ф - Х - Ц - Ч - Ш - Щ - Э - Ю - Я

Аккорд песни Голубые Береты - Мой Груз-200
Просмотров: 373
Дата добавления: 09.06.2010
Категория: Г
 Все куплеты играть перебором: 5-3-2-3-1-3-2-3. Припев - боем



am|--------
|---1----
|-----2--
|-----2--
|--------
|--------Am f|-1------------
|-1------------
|-1--2---------
|-1-----3------
|-1-----3------
|-1-----------F

Самолёт пасть открыл для загрузки своих пассажиров

dm|--1------
|-------3-
|----2----
|---------
|---------
|---------
Dm e|------------
|------------
|---1--------
|------2-----
|------2-----
|------------E

Но сегодня один я лечу, и так тесно вдруг мне.

am|--------
|---1----
|-----2--
|-----2--
|--------
|--------Am f|-1------------
|-1------------
|-1--2---------
|-1-----3------
|-1-----3------
|-1-----------F

Прислонился щекой к холодеющей линзе окошка,

dm|--1------
|-------3-
|----2----
|---------
|---------
|---------
Dm e|------------
|------------
|---1--------
|------2-----
|------2-----
|------------E

Груз заносится мой и мороз пробежал по спине.



Припев:

f|-1------------
|-1------------
|-1--2---------
|-1-----3------
|-1-----3------
|-1-----------F g
|------3---
|----------
|----------
|----------
|----2-----
|------3---G am|--------
|---1----
|-----2--
|-----2--
|--------
|--------Am

Вот мы и вместе

f|-1------------
|-1------------
|-1--2---------
|-1-----3------
|-1-----3------
|-1-----------F g
|------3---
|----------
|----------
|----------
|----2-----
|------3---G c|----------
|---1------
|----------
|-----2----
|-------3--
|-------3--C

Один на двоих самолёт

f|-1------------
|-1------------
|-1--2---------
|-1-----3------
|-1-----3------
|-1-----------F g
|------3---
|----------
|----------
|----------
|----2-----
|------3---G am|--------
|---1----
|-----2--
|-----2--
|--------
|--------Am

Груз мой двести, ( Со слова двести переходить на перебор)

f|-1------------
|-1------------
|-1--2---------
|-1-----3------
|-1-----3------
|-1-----------F g
|------3---
|----------
|----------
|----------
|----2-----
|------3---G am|--------
|---1----
|-----2--
|-----2--
|--------
|--------Am

Твой последний полёт.





Я сжимаю в руке накладную как пропуск в несчастье,



И так хочеться смять этот страшный зелёный листок,



Закружились винты побежала под нами бетонка,



Вот и всё, полетели до дому браток.



Припев тот же.





Проплывают под нами седые афганские горы,



я к ним зла не держу, но будь проклята эта война.



При посадке в Союзе техонько шепну своей ноше



-Сашка друг, ведь тебя же встречает весна.



Припев тот же.
Голубые Береты - Мой Груз-200 аккорд песни