Среда, 30.09.2020, 22:23
Популярные аккорды
   Аккорды песен Башкирия (3666)
   Аккорды песен 5nizza - Пятница (2848)
   Аккорды песен Я у девушка юный бил ночью в гостях... (2237)
   Аккорды песен Вот идет караван... (2192)
   Аккорды песен Лесоповал - Я куплю тебе дом (Белый лебедь) (2092)
   Аккорды песен Дворовые песни - Казахи (1930)
   Аккорды песен Тема из к/ф "Джентльмены удачи" (1691)
   Аккорды песен Дoждь cтyчит пo кpышaм, cлoвнo мнe нaзлo (1649)
   Аккорды песен Агата Кристи - Как на войне (1559)
   Аккорды песен Кабриолет - Цепи (1529)
Поиск
Статистика

Добавлено аккордов: 2102



Аккорды к песням нашим


0-9 - A - B - C - D - E - F - G - H - I - J - K - L - M - N - O - P - Q - R - S - T - U - V - W - X - Y - Z
А - Б - В - Г - Д - Е - Ж - З - И - К - Л - М - Н - О - П - Р - С - Т - У - Ф - Х - Ц - Ч - Ш - Щ - Э - Ю - Я

Аккорд песни HammerFall - Glory To Brave
Просмотров: 309
Дата добавления: 09.06.2010
Категория: H
notation:
^ = bend
^> = bend and release
x = fret-hand muting
. = pick-hand muting
spm.= slight palm muting
h = hammer-on
p = pull-off
~ = vibrato
t = tap-on
/ = slide up
= slide down
ah. = artificial harmonics
nh. = natural harmonics
(9) = ghost note
" = trem picking

Intro : Dm Am Bb F C Dm Am Bb C Bb
|o |o |o |d d |o |o |o |d d |

(o=whole d=half)

Intro solo
D5 A5 Bb5 F5 C5
e:-13-13-13-13-12-10-|-12-----------|-------------------|------------|
B:-------------------|----13--------|-15-15-15-15-13-15-|-10---------|
G:-------------------|--------------|-------------------|------------|
D:-------------------|--------------|-------------------|------------|
A:-------------------|--------------|-------------------|------------|
E:-------------------|--------------|-------------------|------------|



D5 A5 Bb5 C5 Bb5
e:-13-13-13-13-12-10-|-8-10-12------|-10-10-10-10-12-13-|-15---17^-15-13-12-12h13-1210-|
B:-------------------|--------------|-------------------|-------------------------------|
G:-------------------|--------------|-------------------|-------------------------------|
D:-------------------|--------------|-------------------|-------------------------------|
A:-------------------|--------------|-------------------|-------------------------------|
E:-------------------|--------------|-------------------|-------------------------------|

Gm
|o |o |o |o |

Gm Eb
Snow is falling down on this glorious land
F D
Colors fading turning into white again
Gm Eb
To fallen heroes angels sing they cry their winter tears
F D
Endless mourning days will turn to years

Bb Dm C Am
So this is goodbye I take leave of you and
Bb Gm Am
Spread your wings and you will fly away now, fly away now

Dm Am Bb F C
Nothing on Earth stays forever but none of your deeds were in vain
Dm Am Bb C
Deep in our hearts you will live again you´re gone to the home of the brave

Dm Gm
|o |o |o |o |o |o |

Every solemn moment I will treasure inside
Eventhough it´s hard to understand
That a silent wind can blow the candle out
Taking everything leaving the pain far

behind. You call out my name but your voice is fading
Into the wind embraced you´ll fly away now, fly away now

D5 A5 Bb5 F5 C5
Nothing on Earth lives forever but none of your deeds were in vain
D5 A5 Bb5 C5
Deep in our hearts you will live again you´re gone to the home of the brave
D5 A5 Bb5 F5 C5
Nothing on Earth lives forever but none of your deeds were in vain
D5 A5 Bb5 C5
Deep in our hearts you will live again you´re gone to the home of the brave
C5 Bb5 G5
ye- ah

G5 A5 Bb5 P.M... C5 G5 F5 G5 A5
e:------|------------------|-------------------|-------------|----------|
B:------|------------------|-------------------|-------------|----------|
G:----2-|-3----------------|-5------------5----|---------5-7-|-7------2-|
D:-5--2-|-3----------------|-5------------5----|-5-------3-5-|-5---5--2-|
A:-5--0-|-1----------3-5-3-|-3------------3----|-5-----------|-----5--0-|
E:-3----|------------------|-------------------|-3-----------|-----3----|
My eyes are closed I feel you´re far away

Bb5 P.M... C5 A5 G5 A5 G5 A5
e:|------------------|-------------------|-------------|----------|
B:|------------------|-------------------|--------7--9-|-9--------|
G:|-3----------------|-5------------5----|-2------7--9-|-9------2-|
D:|-3----------------|-5------------5----|-2------5--7-|-7---5--2-|
A:|-1----------3-5-3-|-3------------3----|-0-----------|-----5--0-|
E:|------------------|-------------------|-------------|-----3----|
Far be- yond that shining star

Bb5 P.M... C5 G5 F5 G5 A5
e:|--------------------|--------------------|----------------|----------|
B:|--------------------|--------------------|-----------5--7-|-7--------|
G:|-3------------------|-5------------5-----|-----------5--7-|-7------2-|
D:|-3------------------|-5------------5-----|-5---------3--5-|-5---5--2-|
A:|-1----------3-5-3---|-3------------3-----|-5--------------|-----5--0-|
E:|--------------------|--------------------|-3--------------|-----3----|
I know you´ll find what you´ve been fighting for

Bb5 P.M... C5 D5 Eb5 P.M... F5 P.M...
e:|------------------|-------------------|----|-----|-----------|------|------------|-------|
B:|------------------|-------------------|----|-----|-----------|------|------------|-------|
G:|-3----------------|-5------------5----|-7--|-7---|-8---------|-8----|-10---------|-10----|
D:|-3----------------|-5------------5----|-7--|-7---|-8---------|-8----|-10---------|-10----|
A:|-1----------3-5-3-|-3------------3----|-5--|-5---|-6---6-6-6-|-6----|--8---8-8-8-|--8----|
E:|------------------|-------------------|----|-----|-----------|------|------------|-------|
Far be- yond that shining star

G5 A5 Bb5 P.M... C5 P.M. A5 P.M. G5
e:------|------------------|-8---8-10-|-5---5-6-|-3----|
B:------|------------------|----------|---------|------|
G:----2-|-3----------------|-5--------|-2-------|------|
D:-5--2-|-3----------------|-5--------|-2-------|-5----|
A:-5--0-|-1----------3-5-3-|-3---3-5--|-0---0-1-|-5----|
E:-3----|------------------|----------|---------|-3----|
HammerFall - Glory To Brave аккорд песни