Понедельник, 26.10.2020, 15:32
Популярные аккорды
   Аккорды песен Башкирия (3680)
   Аккорды песен 5nizza - Пятница (2872)
   Аккорды песен Я у девушка юный бил ночью в гостях... (2259)
   Аккорды песен Вот идет караван... (2206)
   Аккорды песен Лесоповал - Я куплю тебе дом (Белый лебедь) (2107)
   Аккорды песен Дворовые песни - Казахи (1946)
   Аккорды песен Тема из к/ф "Джентльмены удачи" (1707)
   Аккорды песен Дoждь cтyчит пo кpышaм, cлoвнo мнe нaзлo (1660)
   Аккорды песен Агата Кристи - Как на войне (1573)
   Аккорды песен Кабриолет - Цепи (1544)
Поиск
Статистика

Добавлено аккордов: 2102



Аккорды к песням нашим


0-9 - A - B - C - D - E - F - G - H - I - J - K - L - M - N - O - P - Q - R - S - T - U - V - W - X - Y - Z
А - Б - В - Г - Д - Е - Ж - З - И - К - Л - М - Н - О - П - Р - С - Т - У - Ф - Х - Ц - Ч - Ш - Щ - Э - Ю - Я

Аккорд песни HammerFall - Renegade
Просмотров: 317
Дата добавления: 09.06.2010
Категория: H
 *** A METAL HEART IS HARD TO TEAR APART! ***

TABLATURE DESCRIPTION:
======================
pm... = Palm mute * = see comment
~ = Vibrato x = percussion note
/ = Slide up = Slide down
h = hammer on p = pull off
^ = bend b+r = Bend and release
" = Tremolo note ph = Pinch harmonic
sh = Semi Harmonic


xx^(xx) = Bend xx to (xx). <--|
(xx)^(xx) = Bend back to xx -|


INTRO:
Motorbikes from Hell!!!!!!! ;-)


RIFF 1:
No timing as usual. :-)

e|--------------------------------------------------------------|
B|--------------------------------------------------------------|
G|-----------------------------------------------------7--------| Guitar
D|-7-----7-----9/10-7-----7-----9/10--7-----7-----9/10---10-9-6-| I
A|---0-0---0-0--------0-0---0-0---------8-8---8-8---------------|
E|--------------------------------------------------------------|
|pm . . . . . . . . . . . . |
| A5 F5 G5 |
e|--------------------------------------------------------------|
B|--------------------------------------------------------------|
G|--------------------------------------------------------------| Guitar
D|--------------------------------------------------------------| II
A|-0-0-0-0-0-0-0-0-0-0-0-0-0-0-0-0-0-0--------------------------| * Comment
E|-------------------------------------1-1-1-1-1-1-3-3-3-3-3-3--|
pm . . . . . . . . . . . . . . . . . . . . . . . . . . . . . .

* I don´t know if this is how they play, it could as well be the bass guitar
playing this part. I don´t know...

e|---------------------------------------------------------------|
B|-------------------------------------------------------------2-|
G|----------------------------------------------------7---9----2-| Guitar
D|-7-----7-----9/10-7-----7-----9/10-7-----7-----9/10---9---10-0-| I
A|---0-0---0-0--------0-0---0-0--------8-8---8-8-----------------|
E|---------------------------------------------------------------|
|pm . . . . . . . . . . . . |
| |
e|---------------------------------------------------------------|
B|---------------------------------------------------------------|
G|-------------------------------------------------------------2-| Guitar
D|-------------------------------------------------------------2-| II
A|-0-0-0-0-0-0-0-0-0-0-0-0-0-0-0-0-0-0-------------------------0-|
E|-------------------------------------1-1-1-1-1-1-1-3-3-3-3-3---|
pm . . . . . . . . . . . . . . . . . . . . . . . . . . . . . .


VERS
The timing may not be perfect, but I tried my best.

E5 C5 A5 C5 Bb5A5 E5 C5 A5
e|---------------------------------------------------------------|
B|-5-------------------------------------------------------------|
G|-4--5--2----------------------------------------------4-----2--| Guitar
D|-2--5--2-(Fade-Out)-------------------------5--4--2---2--5--2--| I
A|----3--0------------------------------------3--2--0------3--0--|
E|---------------------------------------------------------------|
| See the outlaw stands alone.... |
| |
e|---------------------------------------------------------------|
B|-5-------------------------------------------------------------|
G|-4--5--2----------------------------------------------4-----2--| Guitar
D|-2--5--2-(Fade-Out)-------------------------5--4--2---2--5--2--| II
A|----3--0------------------------------------3--2--0------3--0--|
E|---------------------------------------------------------------|


BRIDGE
F5 A5
e|---------------------------------------------------------------|
B|---------------------------------------------------------------|
G|---------------------------------------------------------------|
D|-----------------------3--5-2-2-2-2-2-2-2-2-2-2-2--------------|
A|-3-3-3-3-3-3-3-3-3-3-3------0-0-0-0-0-0-0-0-0-0-0-7--8---------|
E|-1-1-1-1-1-1-1-1-1-1-1-----------------------------------------|
pm . . . . . . . . . . . . . . . . . . . . . .

G5 A5 G5 F5 E5
e|---------------------------------------------------------------|
B|---------------------------------------------------------------|
G|---------------------------------------------------------------|
D|----------------------------3--2-2-2-2-------------------------|
A|-5-5-5-5-5-5-5-5-5-5-5--5------0-0-0-0-5-5-5-5-3-3-3-3-2-2-2-2-|
E|-3-3-3-3-3-3-3-3-3-3-3-----------------3-3-3-3-1-1-1-1-0-0-0-0-|
pm . . . . . . . . . . . . . . . . . . . . . . . . . . .

F5 A5
e|-------------------------------------------------------|
B|-------------------------------------------------------|
G|-----------------------------------------------------5-|
D|-----------------------3--5-2-2-2-2-2-2-2-2-2-2-2-7----|
A|-3-3-3-3-3-3-3-3-3-3-3------0-0-0-0-0-0-0-0-0-0-0------|
E|-1-1-1-1-1-1-1-1-1-1-1---------------------------------|
pm . . . . . . . . . . . . . . . . . . . . . .

e|---------------------------------------------------------------|
B|---------------------------------------------------------------|
G|---------------------------------------------------------------|
D|-----------------------5--3------------------------------------|
A|-5-5-5-5-5-5-5-5-5-5-5------2-2-2-2-2-2-2-2---2----------------|
E|-3-3-3-3-3-3-3-3-3-3-3------0-0-0-0-0-0-0-0---0----------------|

CHORUS
A5 F5
e|------------------------------------------------------|
B|------------------------------------------------------|
G|------------------------------------------------------|
D|-2---2---2---2----------------------------------------|
A|-0---0---0---0-0-0-0-0-0-0--3---3---3---3-------------|
E|----------------------------1---1---1---1-1-1-1-1-1-1-|
pm . . . . . . . . . . . .
Renegade....

First ending... 2nd ending
e|----------------------------|------|
B|----------------------------|------|
G|----------------------------|------|
D|----------------------------|--2---|
A|-5---5-5-5-5-5-5-5---3----2-|--0---|
E|-3---3-3-3-3-3-3-3---1----0-|------|
pm . . . . . . .

PLAY VERS, BRIDGE, CHORUS...

STICK
This one may as well be wrong... Hmmm, I´m quite sure it´s wrong!

e|---------------------------------------------------------------|
B|---------------------------------------------------------------|
G|-10-----9-----7-------9-----7-----5----------7-----5-----4-----|
D|----7-7---7-7---7-------7-7---7-7---7----------5-5---5-5---5---|
A|---------------------------------------------------------------|
E|---------------------------------------------------------------|
pm . . . . . . . . . . . .

e|--------------------------------------------------|
B|--------------------------------------------------|
G|-------5------10-----9-----7------9-----7-----5---|
D|-7-----5---------7-7---7-7---7------7-7---7-7---7-|
A|-7------------------------------------------------|
E|--------------------------------------------------|
pm . . . . . . . .

e|----------------------|
B|----------------------|
G|-8-----9------11----9-|
D|---9-9---9-9-----9--9-|
A|----------------------|
E|----------------------|
pm . . . .

e|---------------------------------------------------------------|
B|---------------------------------------------------------------|
G|*--------------------------------------------------------------|
D|*----------------------------------------------------------2---|
A|-------5---2---4-------------------------5---2---4---------0---|
E|-2-2-2---2---2-----2-2-2--4-5-4-0--2-2-2---2---2----2-2-2------|
pm . . . . . . . . . . . . . . . . . . .

e|--------------------------------------------|
B|--------------------------------------------|
G|-------------------------------------------*|
D|------------------------------------7-/-9--*| Play 2 times
A|-------5---2---4--------------------5-/-7---|
E|-2-2-2---2---2-----2-2-2--4-5-4-0-----------|
pm . . . . . . . . . . .


SOLO
I know this solo isn´t 100% correct! I just tabbed it out in 1-2 minutes or something...
If you want to tab it out for youself... They use the D Minor scale and Am.
Remember, there´s no timing at all in the solo! So use your ears...

e|-----------------------------------------------------------------------|
B|-15-15p16-16^(17)^(16)-15-13-12p13p12----12p13p12-12p13^(14)--13-12----|
G|--------------------------------------14----------------------------14-|
D|-----------------------------------------------------------------------|
A|-----------------------------------------------------------------------|
E|-----------------------------------------------------------------------|

e|------------12h13p15----------------------------------------------17~-19~-21^(24)~~~-|
B|---12h13p15---------15h13p12h13p15--15p16-16^(17)^(16)-15-13--12---------------------|
G|-14----------------------------------------------------------------------------------|
D|-------------------------------------------------------------------------------------|
A|-------------------------------------------------------------------------------------|
E|-------------------------------------------------------------------------------------|

I never managed to tab the guitar under the solo... It´s very easy.. I bet you can figure
it out with your ears....
HammerFall - Renegade аккорд песни