Четверг, 22.10.2020, 01:16
Популярные аккорды
   Аккорды песен Башкирия (3680)
   Аккорды песен 5nizza - Пятница (2868)
   Аккорды песен Я у девушка юный бил ночью в гостях... (2257)
   Аккорды песен Вот идет караван... (2206)
   Аккорды песен Лесоповал - Я куплю тебе дом (Белый лебедь) (2107)
   Аккорды песен Дворовые песни - Казахи (1945)
   Аккорды песен Тема из к/ф "Джентльмены удачи" (1706)
   Аккорды песен Дoждь cтyчит пo кpышaм, cлoвнo мнe нaзлo (1660)
   Аккорды песен Агата Кристи - Как на войне (1570)
   Аккорды песен Кабриолет - Цепи (1542)
Поиск
Статистика

Добавлено аккордов: 2102



Аккорды к песням нашим


0-9 - A - B - C - D - E - F - G - H - I - J - K - L - M - N - O - P - Q - R - S - T - U - V - W - X - Y - Z
А - Б - В - Г - Д - Е - Ж - З - И - К - Л - М - Н - О - П - Р - С - Т - У - Ф - Х - Ц - Ч - Ш - Щ - Э - Ю - Я

Аккорд песни HammerFall - Stonger Then All
Просмотров: 285
Дата добавления: 09.06.2010
Категория: H
How to play:
bh: bend a half step
bf: bend a full step
h: hammer on
p: pull-off
pm---|:palm-mute


INTRO
-----

| Rhy. fig. 1
e|------------------|------------------|------------------|------------------|------------------|
B|------------------|------------------|------------------|------------------|------------------|
G|------------------|------------------|------------------|---------7--------|-9----------------|
D|---------5---4----|-2----------------|-5----------------|-5-------7--------|-9----------------|
A|---------5---4----|-2----------------|-5----------------|-5-------5--------|-7----------------|
E|---------3---2----|-0----------------|-3----------------|-3----------------|------------------|

end rhy. fig. 1
pm-----------------------------| pm---------------------|
e|------------------|------------------|------------------|------------------|
B|------------------|------------------|------------------|------------------|
G|------------------|------------------|------------------|------------------|
D|-5----------------|------------------|-4----------------|---------5---4----|
A|-3---3-3-3-3-3-3--|-3-3-3-3-3-3-3-3--|-2---2-2-2-2-2-2--|-2-2-2-2-5---4----|
E|------------------|------------------|------------------|---------3---2----|


e|------------------|------------------|------------------|------------------|
B|------------------|------------------|------------------|------------------|
G|------------------|------------------|-5-------7--------|-9----------------|
D|-2----------------|-5----------------|-5-------7--------|-9----------------|
A|-2----------------|-5----------------|-3-------5--------|-7----------------|
E|-0----------------|-3----------------|------------------|------------------|


e|------------------|------------------|------------------|------------------|
B|------------------|------------------|------------------|------------------|
G|------------------|------------------|------------------|-7----------------|
D|-7----------------|------------------|-5----------------|-7----------------|
A|-7----------------|------------------|-5----------------|-5----------------|
E|-5----------------|------------------|-3----------------|------------------|


Rhy. fig. 2
pm----------| pm----------| pm-| pm-|
e||--------------------|------------------|------------------|------------------|
B||--------------------|------------------|------------------|------------------|
G||-*------------------|------------------|------------------|------------------|
D||-*-9----------------|-12----9-----4----|-5----------------|-7-----5-----4----|
A||---7---7-7-7-7-7-7--|-10----7-----2----|-3---3-3-3-3-3-3--|---3-3---3-3---3--|
E||--------------------|------------------|------------------|------------------|

end rhy. fig. 2
pm----------| pm----------| pm-| pm-|
e|------------------|------------------|------------------|--------------------||
B|------------------|------------------|------------------|--------------------||
G|------------------|------------------|------------------|------------------*-||
D|-9----------------|-12----9-----4----|-5----------------|-5-----7-----4----*-||
A|-7---7-7-7-7-7-7--|-10----7-----2----|-3---3-3-3-3-3-3--|---0-0---0-0--------||
E|------------------|------------------|------------------|--------------------||


1st VERSE
---------

e|------------------|------------------|------------------|------------------|
B|------------------|------------------|------------------|------------------|
G|------------------|------------------|------------------|------------------|
D|-9----------------|-------------4----|-5----------------|-------------7----|
A|-7----------------|-------------2----|-3----------------|-------------5----|
E|------------------|------------------|------------------|------------------|
Always standing proud...

e|------------------|------------------|------------------|------------------|
B|------------------|------------------|------------------|------------------|
G|------------------|------------------|------------------|------------------|
D|-9----------------|-------------4----|-5----------------|-7-------5---4----|
A|-7----------------|-------------2----|-3----------------|-7-------5---4----|
E|------------------|------------------|------------------|-5-------3---2----|

e|------------------|------------------|------------------|------------------|
B|------------------|------------------|------------------|------------------|
G|------------------|------------------|------------------|------------------|
D|-9----------------|-------------4----|-5----------------|------------------|
A|-7----------------|-------------2----|-3----------------|------------------|
E|------------------|------------------|------------------|------------------|

e|------------------|------------------|------------------|------------------|
B|------------------|------------------|------------------|------------------|
G|------------------|------------------|------------------|------------------|
D|-5----------------|------------------|-7----------------|-9----------------|
A|-3----------------|------------------|-7----------------|-9----------------|
E|------------------|------------------|-5----------------|-7----------------|


Bridge
------


pm---------------------| pm---------------------|
e|------------------|------------------|------------------|------------------|
B|------------------|------------------|------------------|------------------|
G|------------------|------------------|------------------|------------------|
D|------------------|---------5--------|-7----------------|---------7--------|
A|-5----------------|-------------3----|-5---5-5-5-5-5-5--|-5-5-5-5-----8----|
E|-3---3-3-3-3-3-3--|-3-3-3-3----------|------------------|------------------|
| |
| pm-----------------------------| pm-----------------------------| |
e|------------------|------------------|------------------|------------------|
B|------------------|------------------|------------------|------------------|
G|------------------|------------------|------------------|------------------|
D|------------------|------------------|-7----------------|------------------|
A|-5----------------|------------------|-5---5-5-5-5-5-5--|-5-5-5-5-5-5-5-5--|
E|-3---3-3-3-3-3-3--|-3-3-3-3-3-3-3-3--|------------------|------------------|
Come and fly with...

pm---------------------| pm-----------------------------|
e|------------------|------------------|------------------|------------------|
B|------------------|------------------|------------------|------------------|
G|------------------|------------------|------------------|------------------|
D|------------------|---------9---10---|-9----------------|------------------|
A|-7----------------|------------------|-7---7-7-7-7-7-7--|-7-7-7-7-7-7-7-7--|
E|-5---5-5-5-5-5-5--|-5-5-5-5----------|------------------|------------------|
| |
| pm-----------------------------| |
e|------------------|------------------| Then both guitars plays the same
B|------------------|------------------|
G|------------------|------------------|
D|------------------|------------------|
A|-7----------------|------------------|
E|-5---5-5-5-5-5-5--|-5-5-5-5-5-5-5-5--|

pm----------| pm--| pm--| pm pm----------| pm--| pm--| pm
e|------------------|------------------|------------------|------------------|
B|------------------|------------------|------------------|------------------|
G|------------------|------------------|------------------|------------------|
D|-5----------------|-5-----5-----5----|------------------|------------------|
A|-3---3-3-3-3-3-3--|-3-3-3-3-3-3-3-3--|-5----------------|-5-----5-----5----|
E|------------------|------------------|-3---3-3-3-3-3-3--|-3-3-3-3-3-3-3-3--|

pm----------| pm----------|
e|------------------|------------------|------------------|------------------|
B|------------------|------------------|------------------|------------------|
G|------------------|------------------|------------------|------------------|
D|-7----------------|-7----------------|-4-------4--------|-4-------5---4----|
A|-5---5-5-5-5-5-5--|-5---5-5-5-5-5-5--|-2-------2--------|-2-------5---4----|
E|------------------|------------------|------------------|---------3---2----|


Chorus
------

Rhy. fig. 1
then,
rhy. fig. 2 x2


2nd verse
---------

Same as "1st"


Bridge
------

Same as last time


Chorus
------

Rhy. fig. 1
then,
rhy. fig. 2 x2


Riff A
------

pm--| pm--| pm--| pm--| pm--| pm--| pm pm--| pm--|
e|------------------|------------------|------------------|------------------|
B|------------------|------------------|------------------|------------------|
G|------------------|------------------|------------------|------------------|
D|-5-----4-----4p2--|-5-----4-----2h4--|-5-----4-----4----|-4-----2-----2p0--|
A|---2-2---2-2------|---2-2---2-2------|---2-2---2-2---2--|---0-0---0-0------|
E|------------------|------------------|------------------|------------------|

repeat x3


Riff B
------

I´m sorry that I haven´t got this completly figured out. If you think you kow
it, contact me imideatly

pm--| pm--| pm pm--| pm--| pm pm--| pm--| pm pm--| pm--| pm
e|------------------|------------------|------------------|------------------|
B|------------------|------------------|------------------|------------------|
G|------------------|------------------|------------------|------------------|
D|-7-----5-----7----|-8-----7-----5----|------------------|------------------|
A|---5-5---5-5---5--|---5-5---5-5---5--|-?-----?-----?----|-?-----?-----?----|
E|------------------|------------------|---5-5---5-5---5--|---5-5---5-5---5--|
The past and the...

pm--| pm--| pm pm--| pm--| pm
e|------------------|------------------|------------------|------------------|
B|------------------|------------------|------------------|------------------|
G|------------------|------------------|-10---------------|------------------|
D|-7-----5-----7----|-8-----7-----5----|-10---------------|-10---------------|
A|---5-5---5-5---5--|---5-5---5-5---5--|-8----------------|-10---------------|
E|------------------|------------------|------------------|-8----------------|


SOLO 1
------
Lead git:

e|----------------|----------------|-21hb-----------|-22fb-----------|-17fb-----------|
B|-17fb-----------|----------------|----------------|----------------|----------17-19-|
G|----------------|----------------|----------------|----------------|----------------|
D|----------------|----------------|----------------|----------------|----------------|
A|----------------|----------------|----------------|----------------|----------------|
E|----------------|----------------|----------------|----------------|----------------|

e|-22----------21-----------|-21-19--------------------|--------------------------|
B|----19-17-19----19-17-19--|------19p17p15------------|--------------------------|
G|--------------------------|--------------18-16-------|--------------------------|
D|--------------------------|--------------------19-17-|-16----------------16-19--|
A|--------------------------|--------------------------|----19-17-16-17-19--------|
E|--------------------------|--------------------------|--------------------------|

e|--------------------------|----------------------17--|----17-19-17----17--------|
B|--------------------------|-------15-17-19-17-19-----|-19----------19---19-17p19|
G|-16-----------------------|-14-16--------------------|--------------------------|
D|--------------------------|--------------------------|--------------------------|
A|--------------------------|--------------------------|--------------------------|
E|--------------------------|--------------------------|--------------------------|

e|-------------------14p12h14-|-15p14h15-17p15h17-19p17h19-21p19p17-|-22fb-------|
B|-19-17-15-17-15-17----------|-------------------------------------|------------|
G|----------------------------|-------------------------------------|------------|
D|----------------------------|-------------------------------------|------------|
A|----------------------------|-------------------------------------|------------|
E|----------------------------|-------------------------------------|------------|

e|-17-19-15-19-14-19----19--|----19----19----19--------|
B|-------------------17-----|-15----14-----------------|
G|--------------------------|-------------16----14-----|
D|--------------------------|--------------------------|
A|--------------------------|--------------------------|
E|--------------------------|--------------------------|


Rhythm git:

pm-----------------------------|
e|------------------|------------------|------------------|------------------|
B|------------------|------------------|------------------|------------------|
G|------------------|------------------|------------------|------------------|
D|-4----------------|------------------|-7----------------|-9----------------|
A|-2---2-2-2-2-2-2--|-2-2-2-2-2-2-2-2--|-5----------------|-7----------------|
E|------------------|------------------|------------------|------------------|

pm-----------------------------|
e|------------------|------------------|------------------|------------------|
B|------------------|------------------|------------------|------------------|
G|------------------|------------------|------------------|------------------|
D|-4----------------|------------------|------------------|------------------|
A|-2---2-2-2-2-2-2--|-2-2-2-2-2-2-2-2--|-5----------------|-7----------------|
E|------------------|------------------|-3----------------|-5----------------|

pm-----------------------------|
e|------------------|------------------|------------------|------------------|
B|------------------|------------------|------------------|------------------|
G|------------------|------------------|------------------|------------------|
D|-4----------------|------------------|-7----------------|-9----------------|
A|-2---2-2-2-2-2-2--|-2-2-2-2-2-2-2-2--|-5----------------|-7----------------|
E|------------------|------------------|------------------|------------------|

pm-----------------------------|
e|------------------|------------------|------------------|------------------|
B|------------------|------------------|------------------|------------------|
G|------------------|------------------|------------------|------------------|
D|-4----------------|------------------|------------------|------------------|
A|-2---2-2-2-2-2-2--|-2-2-2-2-2-2-2-2--|-5----------------|-7----------------|
E|------------------|------------------|-3----------------|-5----------------|


SOLO 2
------

Play the same rhythm as "bridge"
Lead:

e|------------------|------------------|------------------|------------------|
B|------------------|-------------12---|------------------|---------------12-|
G|-12---------12-12-|-12----14---------|-14----------11---|------------14----|
D|------------------|------------------|------------------|-12---------------|
A|------------------|------------------|------------------|------------------|
E|------------------|------------------|------------------|------------------|

e|----------------------------------|----------------------------------|
B|-13----------------------13--13---|-13------12h13p12h13p12-----------|
G|----------------------------------|------------------------14--------|
D|----------------------------------|----------------------------------|
A|----------------------------------|----------------------------------|
E|----------------------------------|----------------------------------|

e|--------------------------------------|--------------------------------------|
B|-12-----------------------------------|--------------------------------------|
G|-------------------11p9h-11p9h-11p9---|-12p11h12p11h12p11-14p12h14p12h14p12--|
D|--------------------------------------|--------------------------------------|
A|--------------------------------------|--------------------------------------|
E|--------------------------------------|--------------------------------------|

e|----------------------------------|----------------------------------|
B|-13----------------------13--13---|-13------12h13p12h13p12-----------|
G|----------------------------------|------------------------14--------|
D|----------------------------------|----------------------------------|
A|----------------------------------|----------------------------------|
E|----------------------------------|----------------------------------|

e|------------------|------------------|------------------|------------15-17-|
B|-12---------------|-12----13----15bf-|-r(15)------------|------------------|
G|-------------12---|------------------|------------------|------------------|
D|------------------|------------------|------------------|------------------|
A|------------------|------------------|------------------|------------------|
E|------------------|------------------|------------------|------------------|

I´m not sure if these two bars are correct.
e|-19p17p15-----------------------------|--------------------------------------|
B|----------19p17p15-19p17p15-----------|--------------------------------------|
G|----------------------------17p16p14--|-17p16p14-----------------------------|
D|--------------------------------------|----------17p16p14-17p16p14-----------|
A|--------------------------------------|----------------------------17p16p14--|
E|--------------------------------------|--------------------------------------|


Outro
-----

Rhy. fig. 1 x2

pm----------| pm----------| pm-| pm-|
e|------------------|------------------|------------------|------------------|
B|------------------|------------------|------------------|------------------|
G|------------------|------------------|------------------|------------------|
D|-9----------------|-12----9-----4----|-5----------------|-7-----5-----4----|
A|-7---7-7-7-7-7-7--|-10----7-----2----|-3---3-3-3-3-3-3--|---3-3---3-3---3--|
E|------------------|------------------|------------------|------------------|

pm----------| pm----------| pm-| pm-|
e|------------------|------------------|------------------|------------------|
B|------------------|------------------|------------------|------------------|
G|------------------|------------------|------------------|------------------|
D|-9----------------|-12----9-----4----|-5----------------|-5-----7-----4----|
A|-7---7-7-7-7-7-7--|-10----7-----2----|-3---3-3-3-3-3-3--|---0-0---0-0------|
E|------------------|------------------|------------------|------------------|

pm----------| pm----------| pm-| pm-|
e|------------------|------------------|------------------|------------------|
B|------------------|------------------|------------------|------------------|
G|------------------|------------------|------------------|------------------|
D|-9----------------|-12----9-----4----|-5----------------|-7-----5-----4----|
A|-7---7-7-7-7-7-7--|-10----7-----2----|-3---3-3-3-3-3-3--|---3-3---3-3---3--|
E|------------------|------------------|------------------|------------------|

pm----------| pm----------| pm-| pm-|
e|------------------|------------------|------------------|------------------|
B|------------------|------------------|------------------|------------------|
G|------------------|------------------|------------------|------------------|
D|-9----------------|-12----9-----4----|-5----------------|-5-----4-----5----|
A|-7---7-7-7-7-7-7--|-10----7-----2----|-3---3-3-3-3-3-3--|-3-----3-----3----|
E|------------------|------------------|------------------|------------------|

pm----------| pm----------| pm-| pm-|
e|------------------|------------------|------------------|------------------|-----|
B|------------------|------------------|------------------|------------------|-----|
G|------------------|------------------|------------------|------------------|-----|
D|-7----------------|-7-----5-----4----|-5----------------|-5-----4-----5----|-9---|
A|-5---5-5-5-5-5-5--|-5-----5-----5----|-3---3-3-3-3-3-3--|-3-----3-----3----|-7---|
E|------------------|------------------|------------------|------------------|-----|

Outcast a time of war, when mankind lost control
Of life and death, under surveillance
I watch the children pray, while God just turns away
Out in the ruins they seek shelter
These streets were once my home, but those
Golden days are gone, now I´m fighting to survive
Stone cold, man or machine
Stone cold, the end of our dream
The word is on the street, it´s kill or to be killed
With no exception you are on your own
We should have seen it all along, the writings
On the wall, tell me what have we becom
Stone cold, man or machine
Stone cold, the end of our dream
Who do you believe in now, when the prophecy
Came true, the final deja vu
These streets were once my home, but those
Golden days are gone, now I´m fighting to survive
Stone cold, man or machine
Stone cold, the end of our dream
HammerFall - Stonger Then All аккорд песни