Вторник, 01.12.2020, 11:53
Популярные аккорды
   Аккорды песен Башкирия (3693)
   Аккорды песен 5nizza - Пятница (2889)
   Аккорды песен Я у девушка юный бил ночью в гостях... (2283)
   Аккорды песен Вот идет караван... (2221)
   Аккорды песен Лесоповал - Я куплю тебе дом (Белый лебедь) (2117)
   Аккорды песен Дворовые песни - Казахи (1961)
   Аккорды песен Тема из к/ф "Джентльмены удачи" (1725)
   Аккорды песен Дoждь cтyчит пo кpышaм, cлoвнo мнe нaзлo (1673)
   Аккорды песен Агата Кристи - Как на войне (1584)
   Аккорды песен Кабриолет - Цепи (1556)
Поиск
Статистика

Добавлено аккордов: 2102



Аккорды к песням нашим


0-9 - A - B - C - D - E - F - G - H - I - J - K - L - M - N - O - P - Q - R - S - T - U - V - W - X - Y - Z
А - Б - В - Г - Д - Е - Ж - З - И - К - Л - М - Н - О - П - Р - С - Т - У - Ф - Х - Ц - Ч - Ш - Щ - Э - Ю - Я

Аккорд песни Инструкция По Выживанию - Путин
Просмотров: 214
Дата добавления: 09.06.2010
Категория: И
Соавтор Артур Струков (Культурная Революция)
С#m F#
Слева бар ќЛиверпуль›,
c#|--1--------
|--1-2------
|--1--------
|--1---3----
|--1-----4--
|--1--------
C#m F#
Справа бар ќГулливер›,
c#|--1--------
|--1-2------
|--1--------
|--1---3----
|--1-----4--
|--1--------
C#m F# c#|--1--------
|--1-2------
|--1--------
|--1---3----
|--1-----4--
|--1--------
C#m F#
Сделан Санкт-Петербург на английский манер
c#|--1--------
|--1-2------
|--1--------
|--1---3----
|--1-----4--
|--1--------
C#m F# c#|--1--------
|--1-2------
|--1--------
|--1---3----
|--1-----4--
|--1--------
C#m F#
Без ножа и нунчак›, умер Толя Собчак,
c#|--1--------
|--1-2------
|--1--------
|--1---3----
|--1-----4--
|--1--------
C#m F# F# a|----------
|---2------
|---2------
|---2------
|----------
|----------A
Только чайки кричат, одиноко кричат.
c#|--1--------
|--1-2------
|--1--------
|--1---3----
|--1-----4--
|--1--------
C#m F#
Путин, наш добрый Путин,
a|----------
|---2------
|---2------
|---2------
|----------
|----------A c#|--1--------
|--1-2------
|--1--------
|--1---3----
|--1-----4--
|--1--------
C#m F# c#|--1--------
|--1-2------
|--1--------
|--1---3----
|--1-----4--
|--1--------
C#m F# c#|--1--------
|--1-2------
|--1--------
|--1---3----
|--1-----4--
|--1--------
C#m F# c#|--1--------
|--1-2------
|--1--------
|--1---3----
|--1-----4--
|--1--------
C#m F# a|----------
|---2------
|---2------
|---2------
|----------
|----------A
Ты не Распутин, но Жанна Д`Арк.
Путин, наш милый Путин,
Не Лиллипутин, но Гулливер
c#|--1--------
|--1-2------
|--1--------
|--1---3----
|--1-----4--
|--1--------
C#m F# c#|--1--------
|--1-2------
|--1--------
|--1---3----
|--1-----4--
|--1--------
C#m F# c#|--1--------
|--1-2------
|--1--------
|--1---3----
|--1-----4--
|--1--------
C#m F# c#|--1--------
|--1-2------
|--1--------
|--1---3----
|--1-----4--
|--1--------
C#m F#
Сделан Санкт-Петербург на английский манер,
Сделан Санкт-Петербург на английский манер.
Он не ходит в кабак,
Уважает собак,
Целый день напролёт, он не курит, не пьёт,
Посещает спортзал, тренируется в тире,
Террористов говённых мочит прямо в сортире.
Путин, мочи их, Путин!
Ты не Распутин, но Жанна Д`Арк.
Путин, мочи их, Путин!
Не Лиллипутин, но Гулливер,
Сделан Санкт-Петербург на английский манер,
Сделан Санкт-Петербург на английский манер.
Инструкция По Выживанию - Путин аккорд песни