Суббота, 26.09.2020, 01:49
Популярные аккорды
   Аккорды песен Башкирия (3664)
   Аккорды песен 5nizza - Пятница (2845)
   Аккорды песен Я у девушка юный бил ночью в гостях... (2234)
   Аккорды песен Вот идет караван... (2189)
   Аккорды песен Лесоповал - Я куплю тебе дом (Белый лебедь) (2089)
   Аккорды песен Дворовые песни - Казахи (1927)
   Аккорды песен Тема из к/ф "Джентльмены удачи" (1688)
   Аккорды песен Дoждь cтyчит пo кpышaм, cлoвнo мнe нaзлo (1648)
   Аккорды песен Агата Кристи - Как на войне (1558)
   Аккорды песен Кабриолет - Цепи (1524)
Поиск
Статистика

Добавлено аккордов: 2102



Аккорды к песням нашим


0-9 - A - B - C - D - E - F - G - H - I - J - K - L - M - N - O - P - Q - R - S - T - U - V - W - X - Y - Z
А - Б - В - Г - Д - Е - Ж - З - И - К - Л - М - Н - О - П - Р - С - Т - У - Ф - Х - Ц - Ч - Ш - Щ - Э - Ю - Я

Аккорд песни Иванушки Int. - Куклы
Просмотров: 368
Дата добавления: 09.06.2010
Категория: И
Intro: am|--------
|---1----
|-----2--
|-----2--
|--------
|--------Am c|----------
|---1------
|----------
|-----2----
|-------3--
|-------3--C dm|--1------
|-------3-
|----2----
|---------
|---------
|---------
Dm e|------------
|------------
|---1--------
|------2-----
|------2-----
|------------E 2раза



C e|------------
|------------
|---1--------
|------2-----
|------2-----
|------------E

Весь день льёт дождь



am|--------
|---1----
|-----2--
|-----2--
|--------
|--------Am f|-1------------
|-1------------
|-1--2---------
|-1-----3------
|-1-----3------
|-1-----------F

Бьёт по окнам и по крышам



C e|------------
|------------
|---1--------
|------2-----
|------2-----
|------------E

И ты всё ждёшь



am|--------
|---1----
|-----2--
|-----2--
|--------
|--------Am f|-1------------
|-1------------
|-1--2---------
|-1-----3------
|-1-----3------
|-1-----------F

А хозяйка где-то с рыжим



dm|--1------
|-------3-
|----2----
|---------
|---------
|---------
Dm e|------------
|------------
|---1--------
|------2-----
|------2-----
|------------E am|--------
|---1----
|-----2--
|-----2--
|--------
|--------Am f|-1------------
|-1------------
|-1--2---------
|-1-----3------
|-1-----3------
|-1-----------F

Ходит по бульварам до темна



dm|--1------
|-------3-
|----2----
|---------
|---------
|---------
Dm e|------------
|------------
|---1--------
|------2-----
|------2-----
|------------E am|--------
|---1----
|-----2--
|-----2--
|--------
|--------Am f|-1------------
|-1------------
|-1--2---------
|-1-----3------
|-1-----3------
|-1-----------F

И опять ты дома (забыл) одна



C e|------------
|------------
|---1--------
|------2-----
|------2-----
|------------E

Кукла маша кукла даша



am|--------
|---1----
|-----2--
|-----2--
|--------
|--------Am f|-1------------
|-1------------
|-1--2---------
|-1-----3------
|-1-----3------
|-1-----------F

Кукла вера и наташа



dm|--1------
|-------3-
|----2----
|---------
|---------
|---------
Dm e|------------
|------------
|---1--------
|------2-----
|------2-----
|------------E am|--------
|---1----
|-----2--
|-----2--
|--------
|--------Am f|-1------------
|-1------------
|-1--2---------
|-1-----3------
|-1-----3------
|-1-----------F

Просто годы детские прошли





Кукла маша кукла зина

Зайцы тигры крокодилы

Просто годы детские прошли





Весь день льёт дождь

За окном промокли ветки

И ты всё ждёшь

Куклу отдадут соседке

Фанари зажгли вечерний свет

А её всё дома нет и нет



У них малыш

Он тебя поставит в угол

И ты грустишь

Не бросайте люди кукол

И уж скоро полночь на часах

И у куклы слёзы на глазах
Иванушки Int. - Куклы аккорд песни