Пятница, 30.10.2020, 02:02
Популярные аккорды
   Аккорды песен Башкирия (3682)
   Аккорды песен 5nizza - Пятница (2876)
   Аккорды песен Я у девушка юный бил ночью в гостях... (2262)
   Аккорды песен Вот идет караван... (2207)
   Аккорды песен Лесоповал - Я куплю тебе дом (Белый лебедь) (2108)
   Аккорды песен Дворовые песни - Казахи (1947)
   Аккорды песен Тема из к/ф "Джентльмены удачи" (1709)
   Аккорды песен Дoждь cтyчит пo кpышaм, cлoвнo мнe нaзлo (1661)
   Аккорды песен Агата Кристи - Как на войне (1574)
   Аккорды песен Кабриолет - Цепи (1544)
Поиск
Статистика

Добавлено аккордов: 2102



Аккорды к песням нашим


0-9 - A - B - C - D - E - F - G - H - I - J - K - L - M - N - O - P - Q - R - S - T - U - V - W - X - Y - Z
А - Б - В - Г - Д - Е - Ж - З - И - К - Л - М - Н - О - П - Р - С - Т - У - Ф - Х - Ц - Ч - Ш - Щ - Э - Ю - Я

Аккорд песни Иванушки Int. - Подожди Меня (после Концерта)
Просмотров: 298
Дата добавления: 09.06.2010
Категория: И
 em|-----------
|-----------
|-----------
|-----2-----
|-----2-----
|-----------
Em F# hm|--2-------
|--2-3-----
|--2---4---
|--2---4---
|--2-------
|--2-------Hm
Я в первые в этом городе
em|-----------
|-----------
|-----------
|-----2-----
|-----2-----
|-----------
Em F# hm|--2-------
|--2-3-----
|--2---4---
|--2---4---
|--2-------
|--2-------Hm
Эти улитцы помнят многое
em|-----------
|-----------
|-----------
|-----2-----
|-----2-----
|-----------
Em F# hm|--2-------
|--2-3-----
|--2---4---
|--2---4---
|--2-------
|--2-------Hm g
|------3---
|----------
|----------
|----------
|----2-----
|------3---G em|-----------
|-----------
|-----------
|-----2-----
|-----2-----
|-----------
Em F#
Подожди меня, после концерта, синеглазая!

em|-----------
|-----------
|-----------
|-----2-----
|-----2-----
|-----------
Em F# hm|--2-------
|--2-3-----
|--2---4---
|--2---4---
|--2-------
|--2-------Hm g
|------3---
|----------
|----------
|----------
|----2-----
|------3---G
пр. Подожди меня, подожди меня
em|-----------
|-----------
|-----------
|-----2-----
|-----2-----
|-----------
Em F# hm|--2-------
|--2-3-----
|--2---4---
|--2---4---
|--2-------
|--2-------Hm g
|------3---
|----------
|----------
|----------
|----2-----
|------3---G
Подожди меня, после концерта
em|-----------
|-----------
|-----------
|-----2-----
|-----2-----
|-----------
Em F#
Синеглазая!
Я не знаю кто, расказал тебе
Эти сказочки про моих подруг
Подожди меня, после концерта, синеглазая!
пр.
Я в первые в этом городе
Настроенье дальше некуда
Не бросай меня, после концерта, синеглазая!
пр.
Не бросай меня, не бросай меня
Скоро скоро ночь, мы растанемся
Подожди меня, после концерта, синеглазая!
пр.
Иванушки Int. - Подожди Меня (после Концерта) аккорд песни