Среда, 30.09.2020, 06:14
Популярные аккорды
   Аккорды песен Башкирия (3666)
   Аккорды песен 5nizza - Пятница (2846)
   Аккорды песен Я у девушка юный бил ночью в гостях... (2236)
   Аккорды песен Вот идет караван... (2191)
   Аккорды песен Лесоповал - Я куплю тебе дом (Белый лебедь) (2092)
   Аккорды песен Дворовые песни - Казахи (1930)
   Аккорды песен Тема из к/ф "Джентльмены удачи" (1691)
   Аккорды песен Дoждь cтyчит пo кpышaм, cлoвнo мнe нaзлo (1649)
   Аккорды песен Агата Кристи - Как на войне (1559)
   Аккорды песен Кабриолет - Цепи (1528)
Поиск
Статистика

Добавлено аккордов: 2102



Аккорды к песням нашим


0-9 - A - B - C - D - E - F - G - H - I - J - K - L - M - N - O - P - Q - R - S - T - U - V - W - X - Y - Z
А - Б - В - Г - Д - Е - Ж - З - И - К - Л - М - Н - О - П - Р - С - Т - У - Ф - Х - Ц - Ч - Ш - Щ - Э - Ю - Я

Аккорд песни Иваси - Кремневые ружья
Просмотров: 185
Дата добавления: 09.06.2010
Категория: И
G C G Am7 D7sus D7

G C E7
Кремневые ружья свое отслужили,
Am Am/C D7 D7/C
И ржавчина их доедает уже.
H7 Em C
Стрельцов удалых перевооружили,
G D7 G
И стало спокойней у всех на душе.

D7 G E7 Am
Все сделалось правильно и благочинно,
D7 D7/F# G
Никто с топором не ложится в кровать -
Hm5-/7 E7 E7/G# Am Edim
Не спать и тревожится нету причины:
G D7 G
Стрелецким бунтам уж вовек не бывать.

G C G Am7 D7sus D7

Давно ли недобро трещали пищали,
Давно ли обиды чиня почем зря,
Бояре царя бердышами стращали -
Теперь же поди - ни бояр, ни царя.

Что толку трясти бердышами сегодня,
И гневно, как встарь, из пищалей трещать -
Явися к нам нынче стрелецкая сотня,
Она не нашла бы кого постращать.

Поэтому грозное наше оружье
В музеях висит украшением стен,
И ржавчина точит кремневые ружья,
C E7 E7/G# Am F#dim
И ржавчина точит кремневые ружья -
G D7 G
И, кажется, вскоре источит совсем.

G D7 G Am7 D7 G

Am7 Dsus7 D7/F# E7/G# Bdim Am/C Em(III) Em5- Am6/E(II) Am6/E
-3----3-----5-----4----0-----0-----3-----3-----2---------2-----
-1----1-----3-----3----2-----1-----5-----5-----5---------5-----
-0----2-----5-----4----0-----2-----4-----3-----2---------5-----
-2----0-----4-----x----2-----2-----x-----x-----x---------x-----
-0----------------x----1-----3-----x-----x-----x---------x-----
------------------4----------------0-----0-----0---------0-----

Em5+ F7+ Em/H Am/F# Dm/H Fm/D Em/G F#m7
--3---0----0----0-----1----4----0----0---
--5---1----0----1-----3----6----0----2---
--5---2----0----2-----2----5----0----2---
--x---3----2----2-----3----6----2----2---
--x--------2----0-----2----5----2----0---
--0-------------2---------------3----2---
Иваси - Кремневые ружья аккорд песни