Суббота, 14.12.2019, 16:03
Популярные аккорды
   Аккорды песен Башкирия (3497)
   Аккорды песен 5nizza - Пятница (2640)
   Аккорды песен Вот идет караван... (2011)
   Аккорды песен Я у девушка юный бил ночью в гостях... (1974)
   Аккорды песен Лесоповал - Я куплю тебе дом (Белый лебедь) (1929)
   Аккорды песен Дворовые песни - Казахи (1759)
   Аккорды песен Тема из к/ф "Джентльмены удачи" (1516)
   Аккорды песен Дoждь cтyчит пo кpышaм, cлoвнo мнe нaзлo (1500)
   Аккорды песен Агата Кристи - Как на войне (1414)
   Аккорды песен Кабриолет - Цепи (1347)
Поиск
Статистика

Добавлено аккордов: 2101



Аккорды к песням нашим


0-9 - A - B - C - D - E - F - G - H - I - J - K - L - M - N - O - P - Q - R - S - T - U - V - W - X - Y - Z
А - Б - В - Г - Д - Е - Ж - З - И - К - Л - М - Н - О - П - Р - С - Т - У - Ф - Х - Ц - Ч - Ш - Щ - Э - Ю - Я

Аккорд песни Кино - Грyппа крови
Просмотров: 127
Дата добавления: 08.09.2010
Категория: К
 F#m    F#m      -        F#m   F#m6 c#|--1--------
|--1-2------
|--1--------
|--1---3----
|--1-----4--
|--1--------
C#m    c#|--1--------
|--1-2------
|--1--------
|--1---3----
|--1-----4--
|--1--------
C#m7-5   -        -

A---------------------------------- --4-4----4-6-6----6-8-8----8-9-9--
E-2-2----0-2-2----5-2-2----0-2-5-4- 2---------------------------------

>                              F#m7 F#m

Табы для басухи, а выделено сам догадайся что.
F#m F#m7 F#m6 c#|--1--------
|--1-2------
|--1--------
|--1---3----
|--1-----4--
|--1--------
C#m c#|--1--------
|--1-2------
|--1--------
|--1---3----
|--1-----4--
|--1--------
C#m7-5
-2---2----2----4---4-----
-2---5----4----5---7-----
-2---2----2----6---4-----
-4---4----4----6---6-----
-4---4----4----4---4-----
-2---2----2----x---x-----

 Solo
 ----

  F#m         c#|--1--------
|--1-2------
|--1--------
|--1---3----
|--1-----4--
|--1--------
C#m         F#m     c#|--1--------
|--1-2------
|--1--------
|--1---3----
|--1-----4--
|--1--------
C#m F#m         c#|--1--------
|--1-2------
|--1--------
|--1---3----
|--1-----4--
|--1--------
C#m          F#m     c#|--1--------
|--1-2------
|--1--------
|--1---3----
|--1-----4--
|--1--------
C#m
|------------------------9------9---|------------------------9-------9----|
|-----------------7-------10------9-|-----------------7--------10------9--|
|-----------4-6-----6---------------|-----------4-6-----6-----------------|
|-4---4-6-7-------------------------|-4---4-6-7---------------------------|
|-----------------------------------|-------------------------------------|
|-----------------------------------|-------------------------------------|

2 guitars
  F#m         c#|--1--------
|--1-2------
|--1--------
|--1---3----
|--1-----4--
|--1--------
C#m          F#m    c#|--1--------
|--1-2------
|--1--------
|--1---3----
|--1-----4--
|--1--------
C#m  F#m         c#|--1--------
|--1-2------
|--1--------
|--1---3----
|--1-----4--
|--1--------
C#m          F#m     c#|--1--------
|--1-2------
|--1--------
|--1---3----
|--1-----4--
|--1--------
C#m
|-----------------------14-9---14-7-|------------------------14-9----14-7----|
|-----------------7-----14-10--14-9-|------------------7-----14-10---14-9----|
|-----------4-6---6-6---------------|------------4-6---6-6-------------------|
|-4---4-6-7-6-7-----7---------------|--4---4-6-7-6-7-----7-------------------|
|-5---5-8-9-------------------------|--5---5-8-9-----------------------------|
|-----------------------------------|----------------------------------------|

fm|--1------
|--1------
|--1------
|--1----3-
|--1----3-
|--1------
Fm#
Теплое место, но улицы ждут
   cm|--3------
|--3-4----
|--3---5--
|--3---5--
|--3------
|--3------
Cm#
Отпечатков наших ног.
fm|--1------
|--1------
|--1------
|--1----3-
|--1----3-
|--1------
Fm#             e|------------
|------------
|---1--------
|------2-----
|------2-----
|------------E
Звездная пыль - на сапогах.
fm|--1------
|--1------
|--1------
|--1----3-
|--1----3-
|--1------
Fm#
Мягкое кресло, клетчатый плед,
       cm|--3------
|--3-4----
|--3---5--
|--3---5--
|--3------
|--3------
Cm#
Не нажатый вовремя курок.
fm|--1------
|--1------
|--1------
|--1----3-
|--1----3-
|--1------
Fm#                   e|------------
|------------
|---1--------
|------2-----
|------2-----
|------------E
Солнечный день - в ослепительных снах.

               fm|--1------
|--1------
|--1------
|--1----3-
|--1----3-
|--1------
Fm#
        Группа крови - на рукаве,
                       cm|--3------
|--3-4----
|--3---5--
|--3---5--
|--3------
|--3------
Cm#
        Мой порядковый номер - на рукаве,
              hm|--2-------
|--2-3-----
|--2---4---
|--2---4---
|--2-------
|--2-------Hm#                  e|------------
|------------
|---1--------
|------2-----
|------2-----
|------------E
        Пожелай мне удачи в бою, пожелай мне:
               fm|--1------
|--1------
|--1------
|--1----3-
|--1----3-
|--1------
Fm
        Не остаться в зтой траве,
               cm|--3------
|--3-4----
|--3---5--
|--3---5--
|--3------
|--3------
Cm#
        Не остаться в зтой траве.
             hm|--2-------
|--2-3-----
|--2---4---
|--2---4---
|--2-------
|--2-------Hm#               c7|---------
|--1------
|---------
|----2----
|--1------
|---------C7#      fm|--1------
|--1------
|--1------
|--1----3-
|--1----3-
|--1------
Fm#
        Пожелай мне удачи, пожелай мне удачи!

И есть чем платить, но я не хочу
Победы любой ценой.
Я никому не хочу ставить ногу на грудь.
Я хотел бы остаться с тобой,
Просто остаться с тобой,
Но высокая в небе звезда зовет меня в путь.

        Группа крови - на рукаве,
        Мой порядковый номер - на рукаве,
        Пожелай мне удачи в бою, пожелай мне:
        Не остаться в зтой траве,
        Не остаться в зтой траве.
        Пожелай мне удачи, пожелай мне удачи!
Кино - Грyппа крови аккорд песни