Понедельник, 09.12.2019, 06:10
Популярные аккорды
   Аккорды песен Башкирия (3495)
   Аккорды песен 5nizza - Пятница (2636)
   Аккорды песен Вот идет караван... (2006)
   Аккорды песен Я у девушка юный бил ночью в гостях... (1971)
   Аккорды песен Лесоповал - Я куплю тебе дом (Белый лебедь) (1928)
   Аккорды песен Дворовые песни - Казахи (1758)
   Аккорды песен Тема из к/ф "Джентльмены удачи" (1515)
   Аккорды песен Дoждь cтyчит пo кpышaм, cлoвнo мнe нaзлo (1497)
   Аккорды песен Агата Кристи - Как на войне (1413)
   Аккорды песен Кабриолет - Цепи (1345)
Поиск
Статистика

Добавлено аккордов: 2101



Аккорды к песням нашим


0-9 - A - B - C - D - E - F - G - H - I - J - K - L - M - N - O - P - Q - R - S - T - U - V - W - X - Y - Z
А - Б - В - Г - Д - Е - Ж - З - И - К - Л - М - Н - О - П - Р - С - Т - У - Ф - Х - Ц - Ч - Ш - Щ - Э - Ю - Я

Аккорд песни Кино - Я смотрю в окно мне дождь помыл стекло
Просмотров: 129
Дата добавления: 09.09.2010
Категория: К
C g
|------3---
|----------
|----------
|----------
|----2-----
|------3---G am|--------
|---1----
|-----2--
|-----2--
|--------
|--------Am
Я смотрю в окно мне дождь помыл стекло
am|--------
|---1----
|-----2--
|-----2--
|--------
|--------Am f|-1------------
|-1------------
|-1--2---------
|-1-----3------
|-1-----3------
|-1-----------F
И это очень мило со стороны дождя
C g
|------3---
|----------
|----------
|----------
|----2-----
|------3---G am|--------
|---1----
|-----2--
|-----2--
|--------
|--------Am
Я проснулся утром мне было тяжело
am|--------
|---1----
|-----2--
|-----2--
|--------
|--------Am f|-1------------
|-1------------
|-1--2---------
|-1-----3------
|-1-----3------
|-1-----------F
Но дождь поможет мне я думал уходя
C g
|------3---
|----------
|----------
|----------
|----2-----
|------3---G am|--------
|---1----
|-----2--
|-----2--
|--------
|--------Am f|-1------------
|-1------------
|-1--2---------
|-1-----3------
|-1-----3------
|-1-----------F
к тебе

C g
|------3---
|----------
|----------
|----------
|----2-----
|------3---G
Вчерашний день был весел
G am|--------
|---1----
|-----2--
|-----2--
|--------
|--------Am
Я был в гостях мы пили с утра
am|--------
|---1----
|-----2--
|-----2--
|--------
|--------Am f|-1------------
|-1------------
|-1--2---------
|-1-----3------
|-1-----3------
|-1-----------F c|----------
|---1------
|----------
|-----2----
|-------3--
|-------3--C
часы пробили полночь и я сказал пора спать
c|----------
|---1------
|----------
|-----2----
|-------3--
|-------3--C g
|------3---
|----------
|----------
|----------
|----2-----
|------3---G
можно я останусь у вас
am|--------
|---1----
|-----2--
|-----2--
|--------
|--------Am
я постелил пальто на пол
f|-1------------
|-1------------
|-1--2---------
|-1-----3------
|-1-----3------
|-1-----------F
лег уснул в тот час
c|----------
|---1------
|----------
|-----2----
|-------3--
|-------3--C g
|------3---
|----------
|----------
|----------
|----2-----
|------3---G am|--------
|---1----
|-----2--
|-----2--
|--------
|--------Am f|-1------------
|-1------------
|-1--2---------
|-1-----3------
|-1-----3------
|-1-----------F
увидев тебя

C g
|------3---
|----------
|----------
|----------
|----2-----
|------3---G
А ночью я пил воду и очень плохо спал
am|--------
|---1----
|-----2--
|-----2--
|--------
|--------Am f|-1------------
|-1------------
|-1--2---------
|-1-----3------
|-1-----3------
|-1-----------F
искал окурки наверно всех достал
c|----------
|---1------
|----------
|-----2----
|-------3--
|-------3--C g
|------3---
|----------
|----------
|----------
|----2-----
|------3---G
но как был прекрасен этот расвет
am|--------
|---1----
|-----2--
|-----2--
|--------
|--------Am f|-1------------
|-1------------
|-1--2---------
|-1-----3------
|-1-----3------
|-1-----------F
но тебя со мноы нет, и тебя во мне нет
c|----------
|---1------
|----------
|-----2----
|-------3--
|-------3--C g
|------3---
|----------
|----------
|----------
|----2-----
|------3---G am|--------
|---1----
|-----2--
|-----2--
|--------
|--------Am F/ c|----------
|---1------
|----------
|-----2----
|-------3--
|-------3--C g
|------3---
|----------
|----------
|----------
|----2-----
|------3---G am|--------
|---1----
|-----2--
|-----2--
|--------
|--------Am f|-1------------
|-1------------
|-1--2---------
|-1-----3------
|-1-----3------
|-1-----------F
но ты есть....... ты есть
Кино - Я смотрю в окно мне дождь помыл стекло аккорд песни