Понедельник, 09.12.2019, 06:03
Популярные аккорды
   Аккорды песен Башкирия (3495)
   Аккорды песен 5nizza - Пятница (2636)
   Аккорды песен Вот идет караван... (2006)
   Аккорды песен Я у девушка юный бил ночью в гостях... (1971)
   Аккорды песен Лесоповал - Я куплю тебе дом (Белый лебедь) (1928)
   Аккорды песен Дворовые песни - Казахи (1758)
   Аккорды песен Тема из к/ф "Джентльмены удачи" (1515)
   Аккорды песен Дoждь cтyчит пo кpышaм, cлoвнo мнe нaзлo (1497)
   Аккорды песен Агата Кристи - Как на войне (1413)
   Аккорды песен Кабриолет - Цепи (1345)
Поиск
Статистика

Добавлено аккордов: 2101



Аккорды к песням нашим


0-9 - A - B - C - D - E - F - G - H - I - J - K - L - M - N - O - P - Q - R - S - T - U - V - W - X - Y - Z
А - Б - В - Г - Д - Е - Ж - З - И - К - Л - М - Н - О - П - Р - С - Т - У - Ф - Х - Ц - Ч - Ш - Щ - Э - Ю - Я

Аккорд песни Кино - С лицом нахала
Просмотров: 122
Дата добавления: 09.09.2010
Категория: К
Вступление
C dm|--1------
|-------3-
|----2----
|---------
|---------
|---------
Dm g
|------3---
|----------
|----------
|----------
|----2-----
|------3---G c|----------
|---1------
|----------
|-----2----
|-------3--
|-------3--C dm|--1------
|-------3-
|----2----
|---------
|---------
|---------
Dm g
|------3---
|----------
|----------
|----------
|----2-----
|------3---G c|----------
|---1------
|----------
|-----2----
|-------3--
|-------3--C

am|--------
|---1----
|-----2--
|-----2--
|--------
|--------Am em|-----------
|-----------
|-----------
|-----2-----
|-----2-----
|-----------
Em f|-1------------
|-1------------
|-1--2---------
|-1-----3------
|-1-----3------
|-1-----------F g
|------3---
|----------
|----------
|----------
|----2-----
|------3---G
Меня дома нет целыми днями,
C f|-1------------
|-1------------
|-1--2---------
|-1-----3------
|-1-----3------
|-1-----------F c|----------
|---1------
|----------
|-----2----
|-------3--
|-------3--C g
|------3---
|----------
|----------
|----------
|----2-----
|------3---G
Занят бездельем, игра словами.
am|--------
|---1----
|-----2--
|-----2--
|--------
|--------Am em|-----------
|-----------
|-----------
|-----2-----
|-----2-----
|-----------
Em f|-1------------
|-1------------
|-1--2---------
|-1-----3------
|-1-----3------
|-1-----------F g
|------3---
|----------
|----------
|----------
|----2-----
|------3---G
Каждый день знаю - жизнь снова начинаю
C f|-1------------
|-1------------
|-1--2---------
|-1-----3------
|-1-----3------
|-1-----------F c|----------
|---1------
|----------
|-----2----
|-------3--
|-------3--C g
|------3---
|----------
|----------
|----------
|----2-----
|------3---G
И ни черта ни в чём не понимаю.


C fm|--1------
|--1------
|--1------
|--1----3-
|--1----3-
|--1------
Fm c|----------
|---1------
|----------
|-----2----
|-------3--
|-------3--C
Я, лишь начнётся новый день,
g
|------3---
|----------
|----------
|----------
|----2-----
|------3---G e|------------
|------------
|---1--------
|------2-----
|------2-----
|------------E am|--------
|---1----
|-----2--
|-----2--
|--------
|--------Am f|-1------------
|-1------------
|-1--2---------
|-1-----3------
|-1-----3------
|-1-----------F g
|------3---
|----------
|----------
|----------
|----2-----
|------3---G
Хожу, отбрасываю тень с лицом нахала.
C fm|--1------
|--1------
|--1------
|--1----3-
|--1----3-
|--1------
Fm c|----------
|---1------
|----------
|-----2----
|-------3--
|-------3--C
Наспупит вечер, я опять
g
|------3---
|----------
|----------
|----------
|----2-----
|------3---G e|------------
|------------
|---1--------
|------2-----
|------2-----
|------------E am|--------
|---1----
|-----2--
|-----2--
|--------
|--------Am f|-1------------
|-1------------
|-1--2---------
|-1-----3------
|-1-----3------
|-1-----------F g
|------3---
|----------
|----------
|----------
|----2-----
|------3---G
Отправлюсь спать, чтоб завтра встать - и всё сначала.


am|--------
|---1----
|-----2--
|-----2--
|--------
|--------Am em|-----------
|-----------
|-----------
|-----2-----
|-----2-----
|-----------
Em f|-1------------
|-1------------
|-1--2---------
|-1-----3------
|-1-----3------
|-1-----------F g
|------3---
|----------
|----------
|----------
|----2-----
|------3---G
Ноги уносят мои руки и туловище
C f|-1------------
|-1------------
|-1--2---------
|-1-----3------
|-1-----3------
|-1-----------F c|----------
|---1------
|----------
|-----2----
|-------3--
|-------3--C g
|------3---
|----------
|----------
|----------
|----2-----
|------3---G
И голова отправляется следом,
am|--------
|---1----
|-----2--
|-----2--
|--------
|--------Am em|-----------
|-----------
|-----------
|-----2-----
|-----2-----
|-----------
Em f|-1------------
|-1------------
|-1--2---------
|-1-----3------
|-1-----3------
|-1-----------F g
|------3---
|----------
|----------
|----------
|----2-----
|------3---G
Словно с похмелья шагаю по улице,
c|----------
|---1------
|----------
|-----2----
|-------3--
|-------3--C f|-1------------
|-1------------
|-1--2---------
|-1-----3------
|-1-----3------
|-1-----------F c|----------
|---1------
|----------
|-----2----
|-------3--
|-------3--C g
|------3---
|----------
|----------
|----------
|----2-----
|------3---G
Я - мозг, переполненный сумбуром и бредом.


C fm|--1------
|--1------
|--1------
|--1----3-
|--1----3-
|--1------
Fm c|----------
|---1------
|----------
|-----2----
|-------3--
|-------3--C g
|------3---
|----------
|----------
|----------
|----2-----
|------3---G e|------------
|------------
|---1--------
|------2-----
|------2-----
|------------E am|--------
|---1----
|-----2--
|-----2--
|--------
|--------Am f|-1------------
|-1------------
|-1--2---------
|-1-----3------
|-1-----3------
|-1-----------F g
|------3---
|----------
|----------
|----------
|----2-----
|------3---G
C fm|--1------
|--1------
|--1------
|--1----3-
|--1----3-
|--1------
Fm c|----------
|---1------
|----------
|-----2----
|-------3--
|-------3--C g
|------3---
|----------
|----------
|----------
|----2-----
|------3---G e|------------
|------------
|---1--------
|------2-----
|------2-----
|------------E am|--------
|---1----
|-----2--
|-----2--
|--------
|--------Am f|-1------------
|-1------------
|-1--2---------
|-1-----3------
|-1-----3------
|-1-----------F g
|------3---
|----------
|----------
|----------
|----2-----
|------3---G


am|--------
|---1----
|-----2--
|-----2--
|--------
|--------Am em|-----------
|-----------
|-----------
|-----2-----
|-----2-----
|-----------
Em f|-1------------
|-1------------
|-1--2---------
|-1-----3------
|-1-----3------
|-1-----------F g
|------3---
|----------
|----------
|----------
|----2-----
|------3---G
Все говорят, что нужно кем-то мне становится,
C f|-1------------
|-1------------
|-1--2---------
|-1-----3------
|-1-----3------
|-1-----------F c|----------
|---1------
|----------
|-----2----
|-------3--
|-------3--C g
|------3---
|----------
|----------
|----------
|----2-----
|------3---G
А я хотел бы остаться собой.
am|--------
|---1----
|-----2--
|-----2--
|--------
|--------Am em|-----------
|-----------
|-----------
|-----2-----
|-----2-----
|-----------
Em f|-1------------
|-1------------
|-1--2---------
|-1-----3------
|-1-----3------
|-1-----------F g
|------3---
|----------
|----------
|----------
|----2-----
|------3---G
Мне стало трудно теперь просто разозлиться
C f|-1------------
|-1------------
|-1--2---------
|-1-----3------
|-1-----3------
|-1-----------F c|----------
|---1------
|----------
|-----2----
|-------3--
|-------3--C g
|------3---
|----------
|----------
|----------
|----2-----
|------3---G
И я иду, поглощённый толпой.


C fm|--1------
|--1------
|--1------
|--1----3-
|--1----3-
|--1------
Fm c|----------
|---1------
|----------
|-----2----
|-------3--
|-------3--C
Я, лишь начнётся новый день,
g
|------3---
|----------
|----------
|----------
|----2-----
|------3---G e|------------
|------------
|---1--------
|------2-----
|------2-----
|------------E am|--------
|---1----
|-----2--
|-----2--
|--------
|--------Am f|-1------------
|-1------------
|-1--2---------
|-1-----3------
|-1-----3------
|-1-----------F g
|------3---
|----------
|----------
|----------
|----2-----
|------3---G
Хожу, отбрасываю тень с лицом нахала.
C fm|--1------
|--1------
|--1------
|--1----3-
|--1----3-
|--1------
Fm c|----------
|---1------
|----------
|-----2----
|-------3--
|-------3--C
Наспупит вечер, я опять
g
|------3---
|----------
|----------
|----------
|----2-----
|------3---G e|------------
|------------
|---1--------
|------2-----
|------2-----
|------------E am|--------
|---1----
|-----2--
|-----2--
|--------
|--------Am f|-1------------
|-1------------
|-1--2---------
|-1-----3------
|-1-----3------
|-1-----------F g
|------3---
|----------
|----------
|----------
|----2-----
|------3---G
Отправлюсь спать, чтоб завтра встать - и всё сначала.


C fm|--1------
|--1------
|--1------
|--1----3-
|--1----3-
|--1------
Fm c|----------
|---1------
|----------
|-----2----
|-------3--
|-------3--C
Я, лишь начнётся новый день,
g
|------3---
|----------
|----------
|----------
|----2-----
|------3---G e|------------
|------------
|---1--------
|------2-----
|------2-----
|------------E am|--------
|---1----
|-----2--
|-----2--
|--------
|--------Am f|-1------------
|-1------------
|-1--2---------
|-1-----3------
|-1-----3------
|-1-----------F g
|------3---
|----------
|----------
|----------
|----2-----
|------3---G
Хожу, отбрасываю тень с лицом нахала.
C fm|--1------
|--1------
|--1------
|--1----3-
|--1----3-
|--1------
Fm c|----------
|---1------
|----------
|-----2----
|-------3--
|-------3--C
Наспупит вечер, я опять
g
|------3---
|----------
|----------
|----------
|----2-----
|------3---G e|------------
|------------
|---1--------
|------2-----
|------2-----
|------------E am|--------
|---1----
|-----2--
|-----2--
|--------
|--------Am f|-1------------
|-1------------
|-1--2---------
|-1-----3------
|-1-----3------
|-1-----------F g
|------3---
|----------
|----------
|----------
|----2-----
|------3---G c|----------
|---1------
|----------
|-----2----
|-------3--
|-------3--C
Отправлюсь спать, чтоб завтра встать - и всё сначала.
Кино - С лицом нахала аккорд песни