Понедельник, 23.09.2019, 16:18
Популярные аккорды
   Аккорды песен Башкирия (3461)
   Аккорды песен 5nizza - Пятница (2588)
   Аккорды песен Вот идет караван... (1973)
   Аккорды песен Я у девушка юный бил ночью в гостях... (1918)
   Аккорды песен Лесоповал - Я куплю тебе дом (Белый лебедь) (1905)
   Аккорды песен Дворовые песни - Казахи (1733)
   Аккорды песен Тема из к/ф "Джентльмены удачи" (1487)
   Аккорды песен Дoждь cтyчит пo кpышaм, cлoвнo мнe нaзлo (1473)
   Аккорды песен Агата Кристи - Как на войне (1396)
   Аккорды песен Кабриолет - Цепи (1323)
Поиск
Статистика

Добавлено аккордов: 2097



Аккорды к песням нашим


0-9 - A - B - C - D - E - F - G - H - I - J - K - L - M - N - O - P - Q - R - S - T - U - V - W - X - Y - Z
А - Б - В - Г - Д - Е - Ж - З - И - К - Л - М - Н - О - П - Р - С - Т - У - Ф - Х - Ц - Ч - Ш - Щ - Э - Ю - Я

Аккорд песни Кино - Следи за собой
Просмотров: 105
Дата добавления: 09.09.2010
Категория: К
Вступление:
e|-Гитара--------|--------------|-------------|------------|----------|
B|---------------|---------4----|---------4---|------------|----------|
G|-----0-------0-|-----3--------|-----3-------|-------0----|-------0--|
D|----1-------1--|-5-5---5---5--|-5-5---5---5-|-----1------|-----3----|
A|---3-------3---|--------------|-------------|---3--------|---3------|
E|--4-------1----|--------------|-------------|-4----------|-1--------|
 |               |              |             |            |          |
G|-Бас-----------|-----------3^5|-------------|------------|----------|
D|---------------|--------------|-------------|------------|----------|
A|---------------|-3-----3-3----|-3-----3-3---|----------1-|----------|
E|---------------|--------------|-------------|-4----4-4---|-1----1-1-|

e|---------------|-------------|-----------------|-------------|-------------|
B|----------4----|---------4---|---------4-------|-------------|---------4---|
G|------3--------|-----3-------|-----5-------5---|----0------0-|-----3-------|
D|--5-5---5---5--|-5-5---5---5-|-6-6---6---6---6-|---1------3--|-5-5---5---5-|
A|---------------|-------------|-----------------|--3------3---|-------------|
E|---------------|-------------|-----------------|-4------1----|-------------|
 |               |             |                 |             |             |
G|------------3^5|-------------|-----------------|-------------|------------5|
D|---------------|-------------|-----------------|-------------|-------------|
A|--3-----3-3----|-3-----3-3---|-----------------|-------------|-3-----3-3---|
E|---------------|-------------|-4------4-4----4-|-4----4-1----|-------------|

e|--------------|-----------|----------|-------------|--------------|
B|----------4---|-----------|----------|---------4---|---------4----|
G|------3-------|-------0---|-------0--|-----3-------|-----3--------|
D|--5-5---5---5-|-----1-----|-----3----|-5-5---5---5-|-5-5---5---5--|
A|--------------|---3-------|---3------|-------------|--------------|
E|--------------|-4---------|-1--------|-------------|--------------|
 |              |           |          |             |              |
G|--------------|-----------|----------|------------5|--------------|
D|--------------|-----------|----------|-------------|--------------|
A|--3-----3-3---|----------1|----------|-3-----3-3---|-3-----3-66655|
E|--------------|-4----4-4--|-1----1-1-|-------------|--------------|

Куплет(то, что в скобках, не играется в 1-м куплете):
e|--------------|---------------|-------------|--(-8.....8)|
B|--------------|---------------|-------------|--(-8.....8)|
G|--------------|---------------|-------------|--(-8.....8)|
D|--------------|---------------|-------------|--(10....10)|
A|--------------|---------------|-------------|------------|
E|--------------|---------------|-------------|------------|
 |              |               |             |            |
G|--------------|---------------|-------------|------------|
D|--------------|---------------|-------------|------------|
A|--3-----3-3---|-3-----3-3-----|-3-----3-3---|-3-----3-665|
E|--------------|-----------3-66|-------------|------------|

e|--1----------|-4---------|-Тут слушайте ритм сами-----------|
B|--1----------|-4---------|---------------|------------------|
G|--2----------|-5---------|-------0-0--0-0|-----0-0-----0--0-|
D|--3----------|-6---------|---------------|------------------|
A|-------------|-----------|---------------|------------------|
E|-------------|-----------|---------------|------------------|
 |             |           |               |                  |
G|-------------|-----------|------------3^5|------------------|
D|-------------|-----------|---------------|------------------|
A|-------------|-----------|-3-----3-3-----|-3-----3-3--------|
E|--1-----1-1-3|-4-----4-4-|---------------|-------------3-66-|

e|--------------|----------------|(-6)---------|-------8.....8|
B|--------------|----------------|(-8)-Снизу---|-------8.....8|
G|--------------|----------------|(-8)-вверх---|-------8.....8|
D|--------------|----------------|(10)---------|------10....10|
A|--------------|----------------|-------------|--------------|
E|--------------|----------------|-------------|--------------|
 |              |                |             |              |
G|--------------|----------------|-------------|--------------|
D|--------------|----------------|-------------|--------------|
A|--3-----3-3---|-3-----3-3------|-3-----3-3---|-3---------665|
E|--------------|------------3-66|-------------|-------3-66---|

e|--1----------|-4---------|---------------|------------------|
B|--1----------|-4---------|---------------|------------------|
G|--2----------|-5---------|-------0-0--0-0|-----0-0-----0--0-|
D|--3----------|-6---------|---------------|------------------|
A|-------------|-----------|---------------|------------------|
E|-------------|-----------|---------------|------------------|
 |             |           |               |                  |
G|-------------|-----------|------------3^5|------------------|
D|-------------|-----------|---------------|------------------|
A|-------------|-----------|-3-----3-3-----|-3-----3-3--------|
E|--1-----1-1-3|-4-----4-4-|---------------|-------------3-66-|

Припев:
e|------------|----------|--------------|-------------|-----------------|
B|------------|----------|---------4----|---------4---|---------4-------|
G|--------0---|-------0--|-----3--------|-----3-------|-----5-------5---|
D|------1-----|-----3----|-5-5---5---5--|-5-5---5---5-|-6-6---6---6---6-|
A|----3-------|---3------|--------------|-------------|-----------------|
E|--4---------|-1--------|--------------|-------------|-----------------|
 |            |          |              |             |                 |
G|------------|----------|-----------3^5|-------------|-----------------|
D|------------|----------|--------------|-------------|-----------------|
A|-----------1|----------|-3-----3-3----|-3-----3-3---|-----------------|
E|--4----4-4--|-1----1-1-|--------------|-------------|-4------4-4----4-|

e|-----------------|-------------|--------------|
B|-----------------|---------4---|---------4----|
G|-----0--------0--|-----3-------|-----3--------|
D|----1--------3---|-5-5---5---5-|-5-5---5---5--|  Играть 2 раза.
A|---3--------3----|-------------|--------------|  В последнем такте  
E|--4--------1-----|-------------|--------------|  бас играет ту же
 |                 |             |              |  фишку, что и в
G|-----------------|-----------3^|5-------------|  конце вступления.
D|-----------------|-------------|--------------|
A|-----------------|-3-----3-3---|-3-----3-3----|
E|--4------4-1-----|-------------|--------------|

Куплет
Припев

Соло (1-й такт - это последний такт припева):
e|------------------|-------------6-|----------6-6-6-|-6-------6-------|
B|------------------|---------4-----|----------4-4-4-|-4-------4-------|
G|----3-3-3-3-3-3-5-|-----5---------|---5------------|-5---------------|
D|------------------|-6-6---6---6---|-6---6----------|-5---------------|
A|------------------|---------------|----------------|-----------------|
E|------------------|---------------|----------------|-----------------|
 |                  |               |                |                 |
G|------------------|---------------|----------------|---------7-5-----|
D|------------------|---------------|----------------|-----4-5---------|
A|--3-----3---66655-|---------------|----------66666-|-3---------------|
E|------------------|-4------4--4---|-4-----4--------|-----------------|

e|--8------------|-------------6-|---------6-6-6-|-6------6------|-3..3------|
B|--8----------1-|---------4-----|---------4-4-4-|-4------4------|-4..4------|
G|--8---------0--|-----5---------|---5-----------|-5-------------|-3..3------|
D|-----------3---|-6-6---6---6---|-6---6---------|-5-------------|-5..5------|
A|----------3----|---------------|---------------|---------------|-3..3------|
E|---------1-----|---------------|---------------|---------------|-----------|
 |Тут я не уверен|               |               |               |           |
G|-0-------------|---------------|---------------|---------------|-----------|
D|---------------|---------------|---------------|----5-5--------|-----------|
A|-----3---------|---------------|---------66666-|-3------6-6--3-|-3---3-----|
E|---------1--3-3|-4------4--4---|-4----4--------|---------------|-------3-66|

Куплет (ноты почти те же, что и во 2-м куплете, но звучит по-другому)
Припев

Окончание (ещё одна гитара играет что-то похожее на припев):
e|--------------6-|-----------6-6-6-|---------------|-------------|
B|----------4-----|-----------4-4-4-|---------------|-------------|
G|------5---------|----5------------|---------------|-------------|
D|--6-6---6---6---|--6---6----------|---------------|-------------|
A|----------------|-----------------|---------------|-------------|
E|----------------|-----------------|---------------|-------------|
 |                |                 |               |             |
G|----------------|-----------------|------------3^5|-------------|
D|----------------|-----------------|---------------|-------------|
A|----------------|-----------------|--3-----3-3----|--3-----3-3--|
E|--4--------4-4--|--1---------1-1--|---------------|-------------|

 Hm
Сегодня кому-то говорят: "До свиданья!"
Завтра скажут: "Прощай навсегда!"
E    G            Hm
Заалеет сердечная рана.
  Hm
Завтра кто-то, вернувшись домой,
Застанет в руинах свои города,
E          G                Hm
Кто-то сорвется с высокого крана.

        G           Em           Hm
        Следи за собой, будь осторожен!
        G    Em      Hm
        Следи за собой!

Завтра кто-то утром в постели
Поймет, что болен неизлечимо,
Кто-то, выйдя из дома, попадет под машину.
Завтра где-то в одной из больниц
Дрогнет рука молодого хирурга,
Кто-то в лесу нарвется на мину.

        Следи за собой, будь осторожен!
        Следи за собой!

Ночью над нами пролетел самолет,
Завтра он упадет в океан,
Погибнут все пассажиры.
Завтра где-то, кто знает где?
Война, эпидемия, снежный буран,
Космоса черные дыры...

        Следи за собой, будь осторожен!
        Следи за собой!

Жду отзывов, пожеланий и исправлений (e-mail указан наверху)
Кино - Следи за собой аккорд песни