Воскресенье, 22.09.2019, 16:03
Популярные аккорды
   Аккорды песен Башкирия (3461)
   Аккорды песен 5nizza - Пятница (2587)
   Аккорды песен Вот идет караван... (1973)
   Аккорды песен Я у девушка юный бил ночью в гостях... (1917)
   Аккорды песен Лесоповал - Я куплю тебе дом (Белый лебедь) (1905)
   Аккорды песен Дворовые песни - Казахи (1733)
   Аккорды песен Тема из к/ф "Джентльмены удачи" (1487)
   Аккорды песен Дoждь cтyчит пo кpышaм, cлoвнo мнe нaзлo (1473)
   Аккорды песен Агата Кристи - Как на войне (1396)
   Аккорды песен Кабриолет - Цепи (1323)
Поиск
Статистика

Добавлено аккордов: 2097



Аккорды к песням нашим


0-9 - A - B - C - D - E - F - G - H - I - J - K - L - M - N - O - P - Q - R - S - T - U - V - W - X - Y - Z
А - Б - В - Г - Д - Е - Ж - З - И - К - Л - М - Н - О - П - Р - С - Т - У - Ф - Х - Ц - Ч - Ш - Щ - Э - Ю - Я

Аккорд песни Кино - Ты Смотришь Назад
Просмотров: 110
Дата добавления: 09.09.2010
Категория: К
 em|-----------
|-----------
|-----------
|-----2-----
|-----2-----
|-----------
Em
Ты смотришь назад,
c|----------
|---1------
|----------
|-----2----
|-------3--
|-------3--C
Но что ты можешь вернуть назад.
em|-----------
|-----------
|-----------
|-----2-----
|-----2-----
|-----------
Em c|----------
|---1------
|----------
|-----2----
|-------3--
|-------3--C
Друзья один за одним превратились в машины.
em|-----------
|-----------
|-----------
|-----2-----
|-----2-----
|-----------
Em
И ты уже знаешь,
c|----------
|---1------
|----------
|-----2----
|-------3--
|-------3--C
Что зто судьба поколений,
em|-----------
|-----------
|-----------
|-----2-----
|-----2-----
|-----------
Em
И если ты можешь бежать,
c|----------
|---1------
|----------
|-----2----
|-------3--
|-------3--C
То зто твой плюс.

am|--------
|---1----
|-----2--
|-----2--
|--------
|--------Am
Ты мог быть героем,
c|----------
|---1------
|----------
|-----2----
|-------3--
|-------3--C em|-----------
|-----------
|-----------
|-----2-----
|-----2-----
|-----------
Em
Но не было повода быть.
am|--------
|---1----
|-----2--
|-----2--
|--------
|--------Am
Ты мог бы предать,
c|----------
|---1------
|----------
|-----2----
|-------3--
|-------3--C em|-----------
|-----------
|-----------
|-----2-----
|-----2-----
|-----------
Em
Но некого было предать...
am|--------
|---1----
|-----2--
|-----2--
|--------
|--------Am c|----------
|---1------
|----------
|-----2----
|-------3--
|-------3--C
Подросток, прочитавший вагон
em|-----------
|-----------
|-----------
|-----2-----
|-----2-----
|-----------
Em
Романтических книг,
am|--------
|---1----
|-----2--
|-----2--
|--------
|--------Am c|----------
|---1------
|----------
|-----2----
|-------3--
|-------3--C
Ты мог умереть, если б знал,
em|-----------
|-----------
|-----------
|-----2-----
|-----2-----
|-----------
Em
За что умирать.

Попробуй спастись от дождя, если он внутри.
Попробуй сдержать желание выйти вон.
Ты - педагогическая неудача,
И ты просто вовремя не остановлен.
Теперь ты хочешь проснуться, но зто не сон.
Кино - Ты Смотришь Назад аккорд песни