Вторник, 17.09.2019, 10:01
Популярные аккорды
   Аккорды песен Башкирия (3459)
   Аккорды песен 5nizza - Пятница (2584)
   Аккорды песен Вот идет караван... (1969)
   Аккорды песен Я у девушка юный бил ночью в гостях... (1916)
   Аккорды песен Лесоповал - Я куплю тебе дом (Белый лебедь) (1903)
   Аккорды песен Дворовые песни - Казахи (1733)
   Аккорды песен Тема из к/ф "Джентльмены удачи" (1484)
   Аккорды песен Дoждь cтyчит пo кpышaм, cлoвнo мнe нaзлo (1473)
   Аккорды песен Агата Кристи - Как на войне (1394)
   Аккорды песен Кабриолет - Цепи (1319)
Поиск
Статистика

Добавлено аккордов: 2096



Аккорды к песням нашим


0-9 - A - B - C - D - E - F - G - H - I - J - K - L - M - N - O - P - Q - R - S - T - U - V - W - X - Y - Z
А - Б - В - Г - Д - Е - Ж - З - И - К - Л - М - Н - О - П - Р - С - Т - У - Ф - Х - Ц - Ч - Ш - Щ - Э - Ю - Я

Аккорд песни Кирпичи - Не Заражен
Просмотров: 101
Дата добавления: 09.09.2010
Категория: К
Как вы могли уже догадаться, прослушав данную композицию
в оригинале, непосредственно под гитару ВАСЯ В. не читает,
гитара идёт чисто как intro, подающееся к каждой новой строке.
Это всё дело по плану идёт на квинтах и в идеале с примочкой
а-ля дисторшн.
Дерзайте! не мне судить, но вроде бы получилось.
 
                   КИРПИЧИ
                 «НЕ ЗАРАЖЁН»           
 
b6|---2-----
|---------
|-1-------
|-1-------
|---2-----
|---2-----B6 - c|----------
|---1------
|----------
|-----2----
|-------3--
|-------3--C - G#m - b6|---2-----
|---------
|-1-------
|-1-------
|---2-----
|---2-----B6.    
Скажи, почему этот чел так рад,
b6|---2-----
|---------
|-1-------
|-1-------
|---2-----
|---2-----B6 - c|----------
|---1------
|----------
|-----2----
|-------3--
|-------3--C - G#m - b6|---2-----
|---------
|-1-------
|-1-------
|---2-----
|---2-----B6.    
Скажи, почему ему надо дать пенок под зад,
b6|---2-----
|---------
|-1-------
|-1-------
|---2-----
|---2-----B6 - c|----------
|---1------
|----------
|-----2----
|-------3--
|-------3--C - G#m - b6|---2-----
|---------
|-1-------
|-1-------
|---2-----
|---2-----B6.  
Скажи, почему у него так много жён,
b6|---2-----
|---------
|-1-------
|-1-------
|---2-----
|---2-----B6 - c|----------
|---1------
|----------
|-----2----
|-------3--
|-------3--C - G#m - b6|---2-----
|---------
|-1-------
|-1-------
|---2-----
|---2-----B6.  
Потому что он больше не заражен.
b6|---2-----
|---------
|-1-------
|-1-------
|---2-----
|---2-----B6 - c|----------
|---1------
|----------
|-----2----
|-------3--
|-------3--C - G#m - b6|---2-----
|---------
|-1-------
|-1-------
|---2-----
|---2-----B6.  
Диагноз КВД удивил его
b6|---2-----
|---------
|-1-------
|-1-------
|---2-----
|---2-----B6 - c|----------
|---1------
|----------
|-----2----
|-------3--
|-------3--C - G#m - b6|---2-----
|---------
|-1-------
|-1-------
|---2-----
|---2-----B6.  
Кошмар, он проклял себя самого
b6|---2-----
|---------
|-1-------
|-1-------
|---2-----
|---2-----B6 - c|----------
|---1------
|----------
|-----2----
|-------3--
|-------3--C - G#m - b6|---2-----
|---------
|-1-------
|-1-------
|---2-----
|---2-----B6.  
Сдохнет как собака он прокажен
b6|---2-----
|---------
|-1-------
|-1-------
|---2-----
|---2-----B6 - c|----------
|---1------
|----------
|-----2----
|-------3--
|-------3--C - G#m - b6|---2-----
|---------
|-1-------
|-1-------
|---2-----
|---2-----B6.  
Потому что раньше он был заражен

проигрыш:    b6|---2-----
|---------
|-1-------
|-1-------
|---2-----
|---2-----B6 - h|-2--------
|-2--4-----
|-2--4-----
|-2--4-----
|-2--------
|-2--------H - b6|---2-----
|---------
|-1-------
|-1-------
|---2-----
|---2-----B6 - a|----------
|---2------
|---2------
|---2------
|----------
|----------A -b6|---2-----
|---------
|-1-------
|-1-------
|---2-----
|---2-----B6---4 раза
             
b6|---2-----
|---------
|-1-------
|-1-------
|---2-----
|---2-----B6 - c|----------
|---1------
|----------
|-----2----
|-------3--
|-------3--C - G#m - b6|---2-----
|---------
|-1-------
|-1-------
|---2-----
|---2-----B6.  
Печать порока осталась на лице
b6|---2-----
|---------
|-1-------
|-1-------
|---2-----
|---2-----B6 - c|----------
|---1------
|----------
|-----2----
|-------3--
|-------3--C - G#m - b6|---2-----
|---------
|-1-------
|-1-------
|---2-----
|---2-----B6.  
Хоть радостно думать о чистом конце
b6|---2-----
|---------
|-1-------
|-1-------
|---2-----
|---2-----B6 - c|----------
|---1------
|----------
|-----2----
|-------3--
|-------3--C - G#m - b6|---2-----
|---------
|-1-------
|-1-------
|---2-----
|---2-----B6.  
Он был так убит и так напряжен,
b6|---2-----
|---------
|-1-------
|-1-------
|---2-----
|---2-----B6 - c|----------
|---1------
|----------
|-----2----
|-------3--
|-------3--C - G#m - b6|---2-----
|---------
|-1-------
|-1-------
|---2-----
|---2-----B6.  
потому что раньше он был напряжен
b6|---2-----
|---------
|-1-------
|-1-------
|---2-----
|---2-----B6 - c|----------
|---1------
|----------
|-----2----
|-------3--
|-------3--C - G#m - b6|---2-----
|---------
|-1-------
|-1-------
|---2-----
|---2-----B6.  
Теперь он доволен у него нет проблем
b6|---2-----
|---------
|-1-------
|-1-------
|---2-----
|---2-----B6 - c|----------
|---1------
|----------
|-----2----
|-------3--
|-------3--C - G#m - b6|---2-----
|---------
|-1-------
|-1-------
|---2-----
|---2-----B6.  
Он вызывает зависть у него горем
b6|---2-----
|---------
|-1-------
|-1-------
|---2-----
|---2-----B6 - c|----------
|---1------
|----------
|-----2----
|-------3--
|-------3--C - G#m - b6|---2-----
|---------
|-1-------
|-1-------
|---2-----
|---2-----B6.  
Скажи, почему у него так много жен
b6|---2-----
|---------
|-1-------
|-1-------
|---2-----
|---2-----B6 - c|----------
|---1------
|----------
|-----2----
|-------3--
|-------3--C - G#m - b6|---2-----
|---------
|-1-------
|-1-------
|---2-----
|---2-----B6.  
Потому что он больше не заражён

проигрыш:    b6|---2-----
|---------
|-1-------
|-1-------
|---2-----
|---2-----B6 - h|-2--------
|-2--4-----
|-2--4-----
|-2--4-----
|-2--------
|-2--------H - b6|---2-----
|---------
|-1-------
|-1-------
|---2-----
|---2-----B6 - a|----------
|---2------
|---2------
|---2------
|----------
|----------A -b6|---2-----
|---------
|-1-------
|-1-------
|---2-----
|---2-----B6---4 раза
             
b6|---2-----
|---------
|-1-------
|-1-------
|---2-----
|---2-----B6 - c|----------
|---1------
|----------
|-----2----
|-------3--
|-------3--C - G#m - b6|---2-----
|---------
|-1-------
|-1-------
|---2-----
|---2-----B6.  
Скажи, почему этот чел так рад,
b6|---2-----
|---------
|-1-------
|-1-------
|---2-----
|---2-----B6 - c|----------
|---1------
|----------
|-----2----
|-------3--
|-------3--C - G#m - b6|---2-----
|---------
|-1-------
|-1-------
|---2-----
|---2-----B6.  
Скажи, почему ему надо дать пенок под зад,
b6|---2-----
|---------
|-1-------
|-1-------
|---2-----
|---2-----B6 - c|----------
|---1------
|----------
|-----2----
|-------3--
|-------3--C - G#m - b6|---2-----
|---------
|-1-------
|-1-------
|---2-----
|---2-----B6.  
Скажи, почему у него так много жён,
b6|---2-----
|---------
|-1-------
|-1-------
|---2-----
|---2-----B6 - c|----------
|---1------
|----------
|-----2----
|-------3--
|-------3--C - G#m - b6|---2-----
|---------
|-1-------
|-1-------
|---2-----
|---2-----B6.  
Потому что он больше не заражен.

проигрыш:    b6|---2-----
|---------
|-1-------
|-1-------
|---2-----
|---2-----B6 - h|-2--------
|-2--4-----
|-2--4-----
|-2--4-----
|-2--------
|-2--------H - b6|---2-----
|---------
|-1-------
|-1-------
|---2-----
|---2-----B6 - a|----------
|---2------
|---2------
|---2------
|----------
|----------A -b6|---2-----
|---------
|-1-------
|-1-------
|---2-----
|---2-----B6---4 раза


b6|---2-----
|---------
|-1-------
|-1-------
|---2-----
|---2-----B6 - c|----------
|---1------
|----------
|-----2----
|-------3--
|-------3--C - G#m - b6|---2-----
|---------
|-1-------
|-1-------
|---2-----
|---2-----B6  

А дальше по плану идёт соляк, а с соло у меня туговато,
но я рискнул

3 раза
              
1|6-6-6-6-6-6-6-6-6-6/7--7--7----|
2|-6-6-6-6-6-6-6-6-6----7--7--7--|
         
1 раз     
1|6-6-6-6-6-6-6-6-6-6/7--7--7--|
2|6-6-6-6-6-6-6-6-6-6/7--7--7--|

А дальше я не знаю как это называется, но короче зажимается весь лад (6) и
возя медиатором по струнам спускаться по грифу, в принципе, на моей гитаре
 у меня получилось, надеюсь, что  и у вас всё получится и понравится.
Все притензии или просто письма пишите на duron@atnet.ru
Кирпичи - Не Заражен аккорд песни