Воскресенье, 22.09.2019, 15:35
Популярные аккорды
   Аккорды песен Башкирия (3461)
   Аккорды песен 5nizza - Пятница (2587)
   Аккорды песен Вот идет караван... (1973)
   Аккорды песен Я у девушка юный бил ночью в гостях... (1917)
   Аккорды песен Лесоповал - Я куплю тебе дом (Белый лебедь) (1905)
   Аккорды песен Дворовые песни - Казахи (1733)
   Аккорды песен Тема из к/ф "Джентльмены удачи" (1487)
   Аккорды песен Дoждь cтyчит пo кpышaм, cлoвнo мнe нaзлo (1473)
   Аккорды песен Агата Кристи - Как на войне (1396)
   Аккорды песен Кабриолет - Цепи (1323)
Поиск
Статистика

Добавлено аккордов: 2097



Аккорды к песням нашим


0-9 - A - B - C - D - E - F - G - H - I - J - K - L - M - N - O - P - Q - R - S - T - U - V - W - X - Y - Z
А - Б - В - Г - Д - Е - Ж - З - И - К - Л - М - Н - О - П - Р - С - Т - У - Ф - Х - Ц - Ч - Ш - Щ - Э - Ю - Я

Аккорд песни Лаэртский Александр - Трупик майора
Просмотров: 116
Дата добавления: 10.09.2010
Категория: Л
INTRO и проигрыши: e|------------
|------------
|---1--------
|------2-----
|------2-----
|------------E a|----------
|---2------
|---2------
|---2------
|----------
|----------A e|------------
|------------
|---1--------
|------2-----
|------2-----
|------------E a|----------
|---2------
|---2------
|---2------
|----------
|----------A h|-2--------
|-2--4-----
|-2--4-----
|-2--4-----
|-2--------
|-2--------H a|----------
|---2------
|---2------
|---2------
|----------
|----------A e|------------
|------------
|---1--------
|------2-----
|------2-----
|------------E h|-2--------
|-2--4-----
|-2--4-----
|-2--4-----
|-2--------
|-2--------H

e|------------
|------------
|---1--------
|------2-----
|------2-----
|------------E
Я на елке, что растет, бля
E7
возле нашего райкома
a|----------
|---2------
|---2------
|---2------
|----------
|----------A
За ногу привесил трупик
e|------------
|------------
|---1--------
|------2-----
|------2-----
|------------E h|-2--------
|-2--4-----
|-2--4-----
|-2--4-----
|-2--------
|-2--------H a|----------
|---2------
|---2------
|---2------
|----------
|----------A e|------------
|------------
|---1--------
|------2-----
|------2-----
|------------E h|-2--------
|-2--4-----
|-2--4-----
|-2--4-----
|-2--------
|-2--------H
Участкового майора
a|----------
|---2------
|---2------
|---2------
|----------
|----------A
Прибежали все детишки
e|------------
|------------
|---1--------
|------2-----
|------2-----
|------------E
И залаяли собаки
a|----------
|---2------
|---2------
|---2------
|----------
|----------A
Hачалося тут веселье -
h|-2--------
|-2--4-----
|-2--4-----
|-2--4-----
|-2--------
|-2--------H a|----------
|---2------
|---2------
|---2------
|----------
|----------A e|------------
|------------
|---1--------
|------2-----
|------2-----
|------------E
И пером,бля, не опишешь!

Из окошек, улыбаясь,
Посетители глядели
Погрозил лукаво пальцем
Главный секретарь суровый
А затем снежок пушистый
все в ручонках бойко грели
И снежки кидали в трупик -
Они шлепали так звонко

Обломал же все веселье
Hам начальник милицейский
Что с женою возвращался
Из театра на Таганке
Он своей рукой мышцатой
Так метнул снежок свой крепкий
Что в сугроб сбил он трупик
И его мы потеряли

(***)ПРИМЕЧАHИЕ!!! Аккорды a|----------
|---2------
|---2------
|---2------
|----------
|----------A и e|------------
|------------
|---1--------
|------2-----
|------2-----
|------------E можно (и нужно:-)) чередовать
с a7|---------
|--2------
|---------
|--2------
|---------
|---------A7 и E7 для придания более рок-н-ролльного звучания
Лаэртский Александр - Трупик майора аккорд песни