Вторник, 17.09.2019, 10:02
Популярные аккорды
   Аккорды песен Башкирия (3459)
   Аккорды песен 5nizza - Пятница (2584)
   Аккорды песен Вот идет караван... (1969)
   Аккорды песен Я у девушка юный бил ночью в гостях... (1916)
   Аккорды песен Лесоповал - Я куплю тебе дом (Белый лебедь) (1903)
   Аккорды песен Дворовые песни - Казахи (1733)
   Аккорды песен Тема из к/ф "Джентльмены удачи" (1484)
   Аккорды песен Дoждь cтyчит пo кpышaм, cлoвнo мнe нaзлo (1473)
   Аккорды песен Агата Кристи - Как на войне (1394)
   Аккорды песен Кабриолет - Цепи (1319)
Поиск
Статистика

Добавлено аккордов: 2096



Аккорды к песням нашим


0-9 - A - B - C - D - E - F - G - H - I - J - K - L - M - N - O - P - Q - R - S - T - U - V - W - X - Y - Z
А - Б - В - Г - Д - Е - Ж - З - И - К - Л - М - Н - О - П - Р - С - Т - У - Ф - Х - Ц - Ч - Ш - Щ - Э - Ю - Я

Аккорд песни Ленинград - Без тебя пиздец
Просмотров: 138
Дата добавления: 10.09.2010
Категория: Л
--11-9-8Песня играется всего на трёх аккордах: Cm(3) A#(6) G#(4)

Вступление: ( 2 раза )
Cm A# G# A# Cm A# G# A#
1|---------------------------------|---------------------------------|
2|-----------6-4-6-4---4--8-6-4-0--|----------6-4-6-8---8--11-9-8-6--|
3|---5--0--3-----------------------|--5--0--3------------------------|
4|---------------------------------|---------------------------------|
5|---------------------------------|---------------------------------|
6|---------------------------------|---------------------------------|

Cm Cm Cm
1|---------------|---------------|----------------|
2|---------------|---------------|----------------|
3|---------------|---------------|----------------|
4|--5-5-5-5-5-5--|---------------|-5-5-5-5-5-5----|
5|-------------3-|-------------3-|-------------3--|
6|---------------|-3-3-3-3-3-3---|----------------|


Cm A#
1. У меня, как обычно - всё отлично.
G# A#
Мои корабли уходят в запой.
Cm A#
У тебя, как обычно - всё очень цинично:
G# A#
"Мол, за собой посуду помой!"
Cm A#
Ну и, конечно, все эти бабы,
G# A#
Которые содятся мне на конец.
Cm A#
О, я еб..сь с ними со всеми,
G# A#
Но без тебя пи...ц!!!

Припев:
Cm A# G# A#
Без тебя пи...ц!!!
2|--4--8-6-4-0--|

Cm A# G# A#
Без тебя пи...ц!!!
2|--8--11-9-8-6-|

Cm A# G# A#
Без тебя пи...ц!!!
2|--4--8-6-4-0--|

Cm A# G# A#
Без тебя пи...ц!!!
2|--8--11-9-8-6-|

Проигрыш: ( как вступление, 2 раза )

2. Знаю, знаю ты - одна такая.
Знаю, знаю ты - одна такая,
Знаю, знаю ты - одна такая есть,оу ес!!!
Знаю, знаю ты - одна такая.
Знаю, знаю ты - одна такая,
Знаю, знаю ты - одна такая
Знаю, знаю без тебя пи...ц!!!

Припев:

Концовка совсем чуть-чуть отличается от Вступления:

Cm A# G# A# Cm A# G# A# A# A# Cm
1|---------------------------------|---------------------------------|------------|----------------|
2|-----------6-4-6-4---4--8-6-4-0--|----------6-4-6-8---8--11-9-8-6--|--11-9-8-6--|--11-9-8-6--13--|
3|---5--0--3-----------------------|--5--0--3------------------------|------------|----------------|
4|---------------------------------|---------------------------------|------------|----------------|
5|---------------------------------|---------------------------------|------------|----------------|
6|---------------------------------|---------------------------------|------------|----------------|
Ленинград - Без тебя пиздец аккорд песни