Вторник, 17.09.2019, 09:40
Популярные аккорды
   Аккорды песен Башкирия (3459)
   Аккорды песен 5nizza - Пятница (2584)
   Аккорды песен Вот идет караван... (1969)
   Аккорды песен Я у девушка юный бил ночью в гостях... (1916)
   Аккорды песен Лесоповал - Я куплю тебе дом (Белый лебедь) (1903)
   Аккорды песен Дворовые песни - Казахи (1733)
   Аккорды песен Тема из к/ф "Джентльмены удачи" (1484)
   Аккорды песен Дoждь cтyчит пo кpышaм, cлoвнo мнe нaзлo (1473)
   Аккорды песен Агата Кристи - Как на войне (1394)
   Аккорды песен Кабриолет - Цепи (1319)
Поиск
Статистика

Добавлено аккордов: 2096



Аккорды к песням нашим


0-9 - A - B - C - D - E - F - G - H - I - J - K - L - M - N - O - P - Q - R - S - T - U - V - W - X - Y - Z
А - Б - В - Г - Д - Е - Ж - З - И - К - Л - М - Н - О - П - Р - С - Т - У - Ф - Х - Ц - Ч - Ш - Щ - Э - Ю - Я

Аккорд песни Ленинград - Комон Эврибади
Просмотров: 122
Дата добавления: 10.09.2010
Категория: Л
 - A#7 и A7 (барэ на 1 ладу) играть со слайдом наверх.
- ^ - слайд.
- Dm* - 1]-1-----:
2]-----3-:
3]---2---:
4]-----3-:

intro
gtr. 1
4]-----0-0-0-----0-0-0-----0-0-0--------------0-0-0------0-0-0-----0-0-0--------
5]-4^5-------4^5-------4^5----------------4^5-------4^5--------4^5--------------
gtr. 2
1]----------------------------------1-0-1---------------------------------5-4-5-

gtr.1
3]-----2-2-2-----2-2-2-----2-2-2--------------2-1-0-----------:
4]-2^3-------2^3-------2^3-------3------------------4-3-----0-:
5]--------------------------------------------------------4---: Е-й
gtr.2
1]------------------------------------10-9-10-5-4-3-2-1-------:
2]--------------------------------------------------------2-3-:


gtr.1
4]-----0-0-0-----0-0-0-----0-0-0---------------0-0-0-----0-0-0-----0-0-0--------
5]-4^5-------4^5-------4^5-------5--------4^5-------4^5-------4^5---------------
gtr.2
1]---------------------------------1-0-1-------------------------------5-4-5----
gtr.3
---Dm-------------------------------------Dm*-----------------------------------

gtr.1
3]-----2-2-2-----2-2-2-----2-2-2---------------2-----1---0------------------:
4]-2^3-------2^3-------2^3-------3--------------------------4-3----0--------:
5]-----------------------------------------------------------------------4--:
gtr.2
1]------------------------------------10-9-10--5-----4---3--2-1-------------:
2]-----------------------------------------------------------------2-----3--:
gtr.3
---Dm(V)---------------------------------------Dm(V)-C#--C--H-A#---A(V)--Dm-:

Dm
Мы пришли сюда затем, чтоб веселиться
C (со слайдом наверх)
И потанцевать, если повезёт.
Am
А песня моя - она как птица -
C Am Dm
В воздухе летает и бешено орёт.

припев:
Dm A#7 A7
Комон еврибади,
Dm A#7 A7
Двигай жопой суки, бляди.
Dm A#7 A7
Комон еврибади,
Dm A#7 A7 A#7 A7 A#7 A7
Двигай жопой суки, бляди.
Dm A#7 A7 A#7 A7 A#7 A7 Dm
Ча-ча-ча. Еу, соло


intro: -------

Пива надо выпить - в горле пересохло,
В горле пересохло - на душе тоска.
Ну что же ты приятель ещё не колбасишся,
Надо колбаситься, и вот моя рука.

припев: -------
A#7 A7 A#7 A7 A#7 A7
Ещё раз.
Dm
Ча-ча-ча.


Вроде всё.
У кого какие замечания пишите на apk-mail@mtu-net.ru
Ленинград - Комон Эврибади аккорд песни