Воскресенье, 27.09.2020, 08:47
Популярные аккорды
   Аккорды песен Башкирия (3664)
   Аккорды песен 5nizza - Пятница (2845)
   Аккорды песен Я у девушка юный бил ночью в гостях... (2234)
   Аккорды песен Вот идет караван... (2190)
   Аккорды песен Лесоповал - Я куплю тебе дом (Белый лебедь) (2090)
   Аккорды песен Дворовые песни - Казахи (1928)
   Аккорды песен Тема из к/ф "Джентльмены удачи" (1689)
   Аккорды песен Дoждь cтyчит пo кpышaм, cлoвнo мнe нaзлo (1649)
   Аккорды песен Агата Кристи - Как на войне (1558)
   Аккорды песен Кабриолет - Цепи (1525)
Поиск
Статистика

Добавлено аккордов: 2102



Аккорды к песням нашим


0-9 - A - B - C - D - E - F - G - H - I - J - K - L - M - N - O - P - Q - R - S - T - U - V - W - X - Y - Z
А - Б - В - Г - Д - Е - Ж - З - И - К - Л - М - Н - О - П - Р - С - Т - У - Ф - Х - Ц - Ч - Ш - Щ - Э - Ю - Я

Аккорд песни Marilyn Manson - The Nobodies
Просмотров: 196
Дата добавления: 08.09.2010
Категория: M
Verse:

E |------------------|----------------|-------------------|
B |----1---1---1---1-|--1---1---1---1-|-----1-------1-----|
G |------2-------2---|----2-------2---|-------2-------2---|
D |------------------|----------------|---2-----2-2-----2-|
A |--0-------0-------|-3------3-------|-------------------|
E |------------------|----------------|-------------------|

E |---------------------|
B |-----1---1-----1---1-|
G |-------2---------2---|
D |---------------------|
A |-0-------------------|
E |-------------3-------|

Chorus:

E |-----------------|-----------------|
B |-----------------|-----------------|
G |-2-2-2-2-2-2-2-2-|-5-5-5-5-5-5-5-5-|
D |-2-2-2-2-2-2-2-2-|-5-5-5-5-5-5-5-5-|
A |-0-0-0-0-0-0-0-0-|-3-3-3-3-3-3-3-3-|
E |-----------------|-----------------|

E |-----------------|-----------------|
B |-----------------|-----------------|
G |-----------------|-2-2-2-2---------|
D |-2-2-2-2-2-2-2-2-|-2-2-2-2-5-5-5-5-|
A |-2-2-2-2-2-2-2-2-|-0-0-0-0-5-5-5-5-|
E |-0-0-0-0-0-0-0-0-|---------3-3-3-3-|

Post-Chorus
("Some children died...")

E |-----------------|-----------------|
B |-----------------|-----------------|
G |-2-2-2-2-2-2-2-2-|-----------------|
D |-2-2-2-2-2-2-2-2-|-3-3-3-3-3-3-3-3-|
A |-0-0-0-0-0-0-0-0-|-3-3-3-3-3-3-3-3-|
E |-----------------|-1-1-1-1-1-1-1-1-|

end on
E|-----------|
B|-----------|
G|-----------|
D|--2--2--2--|
A|--2--2--2--|
E|--0--0--0--|

Fill
E|-----------------------------------|
B|-----------------------------------|
G|------------------2-2-2-2----------|
D|-2-2-2-2-2-2-2-2--2-2-2-2--5-5-5-5-|
A|-2-2-2-2-2-2-2-2--0-0-0-0--5-5-5-5-|
E|-0-0-0-0-0-0-0-0-----------3-3-3-3-|

Today I am dirty
I want to be pretty
Tomorrow, I know I´m just dirt

Today I am dirty
I want to be pretty
Tomorrow, I know I´m just dirt

We are the nobodies
we wanna be somebodies
when we´re dead,
they´ll know just who we are

We are the nobodies
we wanna be somebodies
when we´re dead,
they´ll know just who we are

Yesterday I was dirty
wanted to be pretty
I know now that I´m forever dirt

Yesterday I was dirty
wanted to be pretty
I know now that I´m forever dirt

We are the nobodies
we wanna be somebodies
when we´re dead,
they´ll know just who we are

We are the nobodies
we wanna be somebodies
when we´re dead,
they´ll know just who we are

Some children died the other day
we fed machines and then we prayed
puked up and down in morbid faith
you should have seen the ratings that day
Marilyn Manson - The Nobodies аккорд песни