Четверг, 22.10.2020, 01:00
Популярные аккорды
   Аккорды песен Башкирия (3680)
   Аккорды песен 5nizza - Пятница (2868)
   Аккорды песен Я у девушка юный бил ночью в гостях... (2257)
   Аккорды песен Вот идет караван... (2206)
   Аккорды песен Лесоповал - Я куплю тебе дом (Белый лебедь) (2107)
   Аккорды песен Дворовые песни - Казахи (1945)
   Аккорды песен Тема из к/ф "Джентльмены удачи" (1706)
   Аккорды песен Дoждь cтyчит пo кpышaм, cлoвнo мнe нaзлo (1660)
   Аккорды песен Агата Кристи - Как на войне (1570)
   Аккорды песен Кабриолет - Цепи (1542)
Поиск
Статистика

Добавлено аккордов: 2102



Аккорды к песням нашим


0-9 - A - B - C - D - E - F - G - H - I - J - K - L - M - N - O - P - Q - R - S - T - U - V - W - X - Y - Z
А - Б - В - Г - Д - Е - Ж - З - И - К - Л - М - Н - О - П - Р - С - Т - У - Ф - Х - Ц - Ч - Ш - Щ - Э - Ю - Я

Аккорд песни Маврин Сергей - Гонка
Просмотров: 286
Дата добавления: 09.06.2010
Категория: М
--------|---------12|-------7-|----------------------------12|------
--------|-----12----|---------|-------------12---------------|------
--------|-12--------|----8----|---------12------12-----------|------
------9-|-----------|---------|-----12--------------12-------|------
--------|-----------|-9-------|------------------------12----|--16--
- ---0----|-----------|---------|-12---------------------------|------

дергается
0 зажимается 2
am|--------
|---1----
|-----2--
|-----2--
|--------
|--------Am и отпускается
|-------------0-|--0--------|-2-------|-------|----------------------
|----------1----|-----0-----|----3----|-------|----------0-----------
|-------2-------|--------0--|-------2-|-------|-------0--------------
|----2----------|-----------|-0-------|---020-|----2-----------------
|-0-------------|-----------|---------|-------|-3--------------------
|---------------|--0--------|---------|-------|----------------------




флажалетом обычно флажалетом
------|---------12-|-------7-|----------------------------12-|------
------|-----12-----|---------|--------------12---------------|------
------|-12---------|----8----|----------12------12-----------|------
----9-|------------|---------|------12--------------12-------|------
------|------------|-9-------|-------------------------12----|--16--
-0----|------------|---------|--12---------------------------|------



am|--------
|---1----
|-----2--
|-----2--
|--------
|--------Am
|-------------0-|---0---------2----------------------------------
|----------1----|------0---------3-------------------0-----------
|-------2-------|---------0---------2-------------0--------------
|----2----------|-------------0--------020-----2-----------------
|-0-------------|---------------------------3--------------------
|---------------|---0--------------------------------------------


a|----------
|---2------
|---2------
|---2------
|----------
|----------A на 3 ладу f|-1------------
|-1------------
|-1--2---------
|-1-----3------
|-1-----3------
|-1-----------F на 8 ладу f|-1------------
|-1------------
|-1--2---------
|-1-----3------
|-1-----3------
|-1-----------F на 3 ладу
-|-----------|---0----|---------------8|---3--------|--2------------
-|-4--------4|--------|------------8---|------------|-----3---------
-|----4------|--------|---------9------|-------3----|--------2------
-|-------4---|--------|-----10---------|----------4-|--0------------
-|-2---------|--------|----------------|------------|---------------
-|-----------|---0----|--8-------------|---3--------|---------------


----------------------------------------------|
---------------0------------------------------|
-------------0--------------------------------|
---020-----2----------------------------------|
--------3-------------------------------------|
---------------------0------------------------|
Маврин Сергей - Гонка аккорд песни